>
 >
Super 70s

Super 70s Guitar Tabs

Andy Timmons - Super 70s chords, tabs, tablatures, lyrics

Guitar lessons | Add/correct | Request | Top 50 tabs Artists:  A B C D E F G H I J K L M N O P Q R S T U V W X Y Z 0-9

Super 70s Guitar Tabs – Andy Timmons

CD, Sheet music, Poster

Do you like Super 70s? Share with your friends now
Tabs
Gtr I (E A D G B E) - 'Untitled'

 Intro
  Q=160
     Em D  A    E              Dmaj7
 4/4
  Gtr I
                                  PM--------------|   PM
  Q  q  q  q     H.      Q     Q  E E E E E E   E E E E E E E   E
|----0--------|-------------||----------------|-------------------|
|----0--3--2--|-^0----------||-5--------------|-----5---5-5-7-----|
|----0--2--2--|-^1----------||-6------7-7-----|-----6---6-6-6-----|
|-------0--2--|-^2----------||-7--7-7-7-7-7-7-|-7-7-7-7-7-7-7-/12-|
|-------0--0--|-^2----------||-5--5-5-5-5-5-5-|-5-5-5-5-5-5-5-----|
|-------------|-^0----------||----------------|-------------------|


  Gmaj7
                   PM--------|      PM
   Q   E  E  E  E  E  E    E  E  E  E  E  E  Q
|-----------------------|------------------------|
|-10--------------------|-------10----10----10\--|
|-11--11-11-12-12-------|-------11----11----12\--|
|-12--12-12-12-12-12-12-|-12-12-12-12-12-12-12\--|
|-10--10-10-10-10-10-10-|-10-10-10-10-10-10-10\--|
|-----------------------|------------------------|


  Dmaj7
             PM------|   PM
  Q  E E E E E E   E E E E E E E   E
|----------------|--------------------|
|-5------5-5-----|-----5---5-5-5------|
|-6--6-6-7-7-----|-----6---6-6-7------|
|-7--7-7-7-7-7-7-|-7-7-7-7-7-7-7-/12--|
|-5--5-5-5-5-5-5-|-5-5-5-5-5-5-5------|
|----------------|--------------------|


  Gmaj7                   B7sus4 B7       Bm7   N.C.
                                                       2/4
                    PM
   E  E  E  E  E  E E E   Q.   E Q.   E    H    H       Q  Q
|-----------------------|-7------7------|-^7---------||---------||
|-10-10-10-10-10-10-----|-7------7------|-^7---------||---------||
|-11-11-11-11-12-12-----|-9------8------|-^7---------||---------||
|-12-12-12-12-12-12-----|-7------7------|-^7---------||---------||
|-10-10-10-10-10-10-x---|-9------9------|-^9---------||---------||
|---------------------7-|-7----7-7----7-|-^7---------||----x\---||


    Emaj7
   4/4
          PM      PM        PM   PM ~~~~~~~      PM
     E  E E  E  E E  E  E   E  E E  E  +E   E  E E
||------------------------|------------------------|
||o-----------------------|------------------------|
||------------------------|------------------------|
||--11-13---11-13---11-13-|---11---13-(13)-11-13---|
||o-11-11---11-11---11-11-|---11---11-(11)-11-11---|
||--------0-------0-------|-0----0---------------0-|


                          1.,2.,3.
  Amaj7
        PM      PM        PM   PM               PM
   E  E E  E  E E  E  E   E  E E  S  S  E  E  E E
|-----------------------|----------------------------||
|--------------------12-|---------------------------o||
|-11-13---11-13---11-11-|---14---13s14s13-13-14------||
|-11-11---11-11---11-11-|---11---11s12s11-11-11------||
|-------0-------0-------|-0----0----------------0---o||
|-----------------------|----------------------------||


  4.
  Amaj7                       Gmaj7
  E  E E  S  S  E  E  Q       E Q  E +E  Q  E
|-------------------------||------------------|
|-------------------------||o-----------------|
|---14---13s14s13-13-14\--||-------------2--4-|
|---11---11s12s11-11-11\--||-------4-(4)------|
|-0----0------------------||o---2-------------|
|-------------------------||--3---------------|


                    Dmaj7
  +E  Q  E E Q.     H.      E E   +Q   E E +E  E Q
|--------2---5\---|-0---------0-|-(0)----0-(0)-0-0-----||
|-----3-----------|-2---------0-|-(0)----2-(2)-0-2----o||
|-(4)-------------|-2---------2-|-(2)----2-(2)-2-2-----||
|-----------------|-0---------0-|-(0)------------------||
|-----------------|-------------|---------------------o||
|-----------------|-------------|----------------------||


  Fmaj7                               G
  E Q  E +E  Q  E   +E  Q  E E Q.     H.      E E   +Q   E E +E  E Q
|-----------------|--------0--------|-------------|--------------------|
|-----------------|-----1------8\---|-3---------3-|-(3)----3-(3)-3-3---|
|------------0--2-|-(2)-------------|-4---------2-|-(2)----4-(4)-2-4---|
|------2-(2)------|-----------------|-5-----------|--------------------|
|---0-------------|-----------------|-------------|--------------------|
|-1---------------|-----------------|-------------|--------------------|


  Fmaj7                               G             A
  E Q  E +E  Q  E   +E  Q  E E Q.     H.      E E   +H.      Q
|-----------------|--------0--------|-------------|--------------||
|-----------------|-----1------8\---|-3---------5-|-(5)----------||
|------------0--2-|-(2)-------------|-4---------6-|-(6)----------||
|------2-(2)------|-----------------|-5---------7-|-(7)----------||
|---0-------------|-----------------|-------------|----------x\--||
|-1---------------|-----------------|-------------|--------------||


  Emaj7
        PM      PM        PM   PM ~~~~~~~      PM
   E  E E  E  E E  E  E   E  E E  E  +E   E  E E
|-----------------------|------------------------|
|-----------------------|------------------------|
|-----------------------|------------------------|
|-11-13---11-13---11-13-|---11---13-(13)-11-13---|
|-11-11---11-11---11-11-|---11---11-(11)-11-11---|
|-------0-------0-------|-0----0---------------0-|


  Amaj7
        PM      PM        PM   PM               PM
   E  E E  E  E E  E  E   E  E E  S  S  E  E  E E
|-----------------------|-------------------------|
|--------------------12-|-------------------------|
|-11-13---11-13---11-11-|---14---13s14s13-13-14---|
|-11-11---11-11---11-11-|---11---11s12s11-11-11---|
|-------0-------0-------|-0----0----------------0-|
|-----------------------|-------------------------|


  Emaj7
        PM      PM        PM   PM ~~~~~~~      PM
   E  E E  E  E E  E  E   E  E E  E  +E   E  E E
|-----------------------|------------------------|
|-----------------------|------------------------|
|-----------------------|------------------------|
|-11-13---11-13---11-13-|---11---13-(13)-11-13---|
|-11-11---11-11---11-11-|---11---11-(11)-11-11---|
|-------0-------0-------|-0----0---------------0-|


  Amaj7
        PM                ~~~~~~~~~~~~~~
   E  E E  E  E S  S E    E         +Q   S  S S  S S  S S  S S  S S S
|--------------------------------|-------9-------------------------------|
|-----------------------[12]b14==|=(12)----12p9-10p9--------------9------|
|-11-13---11-13s9s13-------------|-------------------11p9----9h11---9S===|
|-11-11---11---------------------|------------------------11-------------|
|-------0------------------------|---------------------------------------|
|--------------------------------|---------------------------------------|


  Emaj7
   ~~~
   Q.    a  E  +E  Q    E    +E  Q  a E +E   E E E
|-------------------------|------------------------|
|-------------------------|------------------------|
|-11----11s13-(13)s8--/11-|-(11)s6--6s8-(8)-\4-4s6-|
|-------------------------|------------------------|
|-------------------------|------------------------|
|-------------------------|------------------------|


  Amaj7
                                          |-3-| |-3-| |-3-| |-3-|
  E E  S     +S  E  S     +S  E S S S S   E E E E E E E E E E E E
|---------------------------------------|-------------------------|
|---------------------------------------|-------------------------|
|-6h8-[8]b9==(8)r8-[8]b9==(8)r8-6h8p6---|-6-----------------------|
|-------------------------------------9-|---9p6-7p6-------6-------|
|---------------------------------------|-----------9p7h9---9p7---|
|---------------------------------------|-----------------------9-|


  Emaj7
  a Q.   a  E  +E  Q   E   +E  Q  a E +E  E E E
|------------------------|----------------------|
|------------------------|----------------------|
|------------------------|----------------------|
|------------------------|----------------------|
|-7s9----9s11-(11)s6--/9-|-(9)s4--4s6-(6)s2-2s4-|
|------------------------|----------------------|


  Amaj7
                          |-3-|   |-3-| |-3-| |-3--| |-3--|
  E E S +S    +E  E   +E  E E E   E E E E E E E E  E E  E E
|-------------------------------|----------------------------||
|-------------------------------|-------------------------9--||
|-------------------------------|--------------------9-11----||
|-------------------------------|-------------6-9s11---------||
|-4h6-6-(6)b7r(6)-6b7r(6)-6p4---|-4-----4s7-9----------------||
|-----------------------------7-|---4-7----------------------||


  Gmaj7
    Q.      E       +E   E  +E   E        +E   +S    +S      +E   E  E.  S  +E   E
|--------------------------------------|-------------------------------------------|
|-/14b15---14pb15==(14)s17-(17)-17b19==|=(17)-(17)r-(17)b19r(17)-15-14--15-(15)-17-|
|--------------------------------------|-------------------------------------------|
|--------------------------------------|-------------------------------------------|
|--------------------------------------|-------------------------------------------|
|--------------------------------------|-------------------------------------------|


  Dmaj7
               ~~                   ~~
                                                |---3---|
   Q      +E   E  +Q    Q       +E  Q.   Q     +E  +E   E
|-----------------------------|----------------------------|
|-----------------------------|----------------------------|
|-16b18r=(16)-14-(14)\--9b11r=|=(9)-6----4b6===(4)-(4)r-2--|
|-----------------------------|----------------------------|
|-----------------------------|----------------------------|
|-----------------------------|----------------------------|


  Gmaj7
                                    |-3-|
  a Q  E  E +E  E E a E   +E  E E E E E E S S S S
|-----------------------|-------------------------|
|-----------------------|-------------------------|
|-2s4s=7-\4-(4)-2-0-----|-----0---2p0-----0-------|
|-------------------2s4-|-(4)---4-----4p2---4p2p0-|
|-----------------------|-------------------------|
|-----------------------|-------------------------|


  Dmaj7
  S S S S S S S S S S S S S S S S
|------------------------------------|
|------------------------------------|
|------------------------------------|
|-2h4p2p0-4h5p4p0-5h7p5p0-7h9p7s6s===|
|------------------------------------|
|------------------------------------|


  Dmaj7                              Fmaj7
  S S S S S S S S S S S S S S S S    Q.     E     +E   S  +S      +E   E
|---------------------------------||-------------------------------------|
|-----------------7-------8-------||-8b10---8pb10r(8)-12-(12)b13r(12)-15-|
|---7s6s7-9-7s6s7---7s6s7---7s6s7-||-------------------------------------|
|-7-------------------------------||-------------------------------------|
|---------------------------------||-------------------------------------|
|---------------------------------||-------------------------------------|


    |------3------|
   +Q      Q      Q       Q.       E
|-------------------------------------|
|-(15)b17-15pb17-15pb17-/20b22s==/17--|
|-------------------------------------|
|-------------------------------------|
|-------------------------------------|
|-------------------------------------|


  Cmaj7
   S  S  S  S  S  S  S  S  S  S  S  S  S  S  S  S
|-15-19p15----17p15s12-15-12----------12----------|
|----------17----------------15p12-------15p12----|
|----------------------------------14----------12-|
|-------------------------------------------------|
|-------------------------------------------------|
|-------------------------------------------------|


                                                    Fmaj7
                                                                 ~~~~~~~
   S  S  S  S  S  S  S  S  S  S  S  S  S  S  S  S    Q      +E   E  +E   E  E  E
|-------------------------------------------------|---------------------------------|
|-13p12-------12----------------------------------|---------------------------------|
|-------14p12----12h14----12----------14p12-------|-16b18r=(16)-14-(14)-12s14-14s===|
|----------------------14----12h14----------14p12-|---------------------------------|
|----------------------------------12-------------|---------------------------------|
|-------------------------------------------------|---------------------------------|


  Fmaj7                 G                A
    ~~~~~~~~~     PM|                                     PM|
  E Q  E +E   Q   S S   H    +E  E E E    E  E  E  E  Q   E E
|-----------------x-x-|-7----(7)-7---7s|==9--9--9--9--9\--x-x--||
|-----------------x-x-|-8----(8)-8---8s|=10-10-10-10-10\--x-x--||
|-9-9--9-(9)-12\------|-7----(7)-7---7s|==9--9--9--9--9\-------||
|---------------------|----------------|-----------------------||
|---------------------|----------------|-----------------------||
|---------------------|----------------|-----------------------||


    Cmaj7
                  3/4
    H.      E E    +E  E +E  E +E  E
||--0---------0-||-(0)---------------||
||o-0-------0---||-----0-(0)---------||
||--0-----------||-----------0-(0)---||
||--2-----------||-----------------2-||
||o-3-----------||-------------------||
||--------------||-------------------||


                                         Em7
 4/4               3/4                  4/4
  Q  E E E E E E    +E  E +E  E +E  E    H    E E E E
|-0------------0-||-(0)---------------||--------------||
|-0--------------||-----0-(0)---------||--------------||
|-0----------0---||-----------0-(0)---||-9----9p7---7-||
|-2------0h2-----||-----------------0-||-9----9p7---9-||
|-3--3-3---------||-------------------||-7----7-7---7-||
|----------------||-------------------||--------------||


                      1.
  Em7
 3/4                  4/4
  +E  E +E  E +E  E    H    E  E  E E
|-------------------||----------------||
|-------------------||----------------||
|-(7)-7-(7)-7-(7)-x-||-9----9p=7----7-||
|-(9)-9-(9)-9-(9)-x-||-9----9p=7----7h||
|-(7)-7-(7)-7-(7)-x-||-7----7-(7)---7-||
|-------------------||----------------||


                     2.
                      Em7
 3/4                 4/4
   E  E +E  E Q       H    E  E  E  E
|------------------||---------------------||
|-----------------o||--------------10b12r=||
|-(7)-7-(7)-7-7\---||-9----9p=7-----------||
|--9--9-(9)-9-9\---||-9----9p=7-----------||
|-(7)-7-(7)-7-7\--o||-7----7-(7)----------||
|------------------||---------------------||


                   E=160
  Em7                 Cmaj7
 3/4                 7/8
                      ~~~
   +E  E E E  E  E    H..
|------------------||-----------|
|-(10)p8s7s8h10s12-||-----------|
|------------------||-9---------|
|------------------||-----------|
|------------------||-----------|
|------------------||-----------|


                                   Em7
                                      ~~~~~~
  +Q    E.  S     +S  S S S  S S   E +Q.      +Q   S a S
|--------------------------------|------------------------|
|----------10b12r(10)p8s7h8-10---|------------------------|
|-(9)\-------------------------7-|-9-(9)b11---(9)---------|
|--------------------------------|-------------------7s9--|
|--------------------------------|------------------------|
|--------------------------------|------------------------|


  Em7
  S S a S S S a S S S  S S S a S S S
|------------------------------------|
|-8s5-----7s5-----5s3----------------|
|------------------------7s5-----7s9s|
|-----7s9-----5s7-----/9-----7s9-----|
|------------------------------------|
|------------------------------------|


  Cmaj7
                              ~~~~~~~~~~
  E S S +S  E S +S  S +E     +E    +Q..   S a E S S +S  S
|--------------------------------|------------------------|
|--------------------------------|------------------------|
|-4s7s2-(2)s4--------------------|------------------------|
|-------------2-(2)h4-(4)b5==(4)-|-(4)------7s9-5-7-(7)---|
|--------------------------------|--------7-------------7-|
|--------------------------------|------------------------|


  Em7
    ~~~~~~~~~~~~
  S E. +Q   +E.  S S S   S S S S E S a S +S  T T T T S S S
|----------------------|-----------------------------------|
|----------------------|-----------------------------------|
|----------------------|-----------------------------------|
|-5s7--(7)--(7)----4---|-4h5-----------------------------5-|
|---------------/7---7-|-----7---5-------------------5-7---|
|----------------------|-------7---5-7s5-(5)p3p0s5-7-------|


  Cmaj7
              |-3--|
  a E. S S E. E E  E  S S
|-------------------------|
|-------------------------|
|-------------------------|
|-----------------------9-|
|-5s7s10s5s7s12s7s10h12---|
|-------------------------|


  Cmaj7
                  |----3----|
   E  +S      S  +E   E     E  S  E.    +E
|-------------------------------------------|
|------------10-(10)-------12-15s17b20-(17)-|
|-12-(12)b14---------14b16------------------|
|-------------------------------------------|
|-------------------------------------------|
|-------------------------------------------|


  Em7
     ~~~~~~~~~~~~~~~~~~
  S  E.      +Q    +E   S   S  E       a  E.  S  +S   E  S  +S   E  S  +S   S
|-----------------------------17b19-|-15h17--17-(17)-17-17-(17)-14-14-(14)----|
|---17pb19==(17)--(17)-17r-15-------|--------------------------------------15-|
|-----------------------------------|-----------------------------------------|
|-----------------------------------|-----------------------------------------|
|-----------------------------------|-----------------------------------------|
|-----------------------------------|-----------------------------------------|


  Cmaj7
        ~~~
                                |--3--|  |--3--|
   +S   E.  E  S  S  +S   T  T  S  S  S  S  S  S
|------------------------------------------------|
|-(15)-15--17------------------------------12-13p|
|-------------14-16-(16)p14s12-------12-14-------|
|------------------------------12h14-------------|
|------------------------------------------------|
|------------------------------------------------|


   |-----5-----|              |------6-------|  |--3--|              |-----5-----|
   T  T  T  T  T  T  T  T  T  S  S  S  S  S  S  S  S  S  T  T  T  T  T  T  T  T  T
|------------------------------------------------------------------------------------|
|-12h13p12h13p12-------12------------------------------------------------------------|
|----------------14p12----12-14----12----12----11------------------------------------|
|-------------------------------14----14----14----12-14-11-12h14p12------------------|
|-------------------------------------------------------------------14p12h14p12p10---|
|------------------------------------------------------------------------------------|


  Em7
   |--3--|
   S  S  S  a  E  E. S E. S S S
|-------------------------------|
|-------------------------------|
|-------------------------7s9s4s|
|-------------------------------|
|----12----10s12-12h14----5s7s2S|
|-12----12----------------------|


                        Cmaj7
                  PM----------|       PM  PM--|
  E.S E. S  S S E S S   S S S S S S S S S S S S S S
|---------------------|-----------------------------|
|---------------------|-----------8-----------------|
|-7s9----9s12s7s9---7-|-7h9---7---9---7---------7h9-|
|-----------------9---|-----9---------7-----7---7h9-|
|-5s7----7s10s5s7-----|-------------------9---9-----|
|---------------------|-----------------------------|


  Cmaj7                         Em7
        PM  PM          PM  PM       PM|            PM-----
  S S S S S S S S S S S S S S   S E  S S S S S S E  S S S
|-----------------------------|---------------------------|
|-8-------------8---8-7---7---|---------------------------|
|-7-9-----------7---7-7---7---|-7h9\---------7---9\-------|
|---9---7---9-----------9-----|-7h9\-----9---7---9\-----9-|
|---------------------------9-|------5-7-9------------7-9-|
|-----------------------------|---------------------7-----|


 -|   PM|
  S S S S S S S S S S S S  S   S
|-----------------------------------|
|-----------------------------------|
|-7-------------7---7h9---11h=12----|
|-7---------9---7---7h9-0-12-(12)---|
|-----5-7---9-----------------------|
|-----------------------------------|


  Cmaj7
   S  S  S  S     S  E.  E S T T  S  T  T
|-10s12--------------------x-x-x----------|
|-10s12-15-----------------x-x-x-15-15-15-|
|----------14b16-12s14--14-x-x-x-14-14-14-|
|-----------------------------------------|
|-----------------------------------------|
|-----------------------------------------|


                                              Em7
   E  S  S  S  S  S  S  S     S  S  S  S  S   a  E.  S  E. S  E. S  E
|-------------10s12-------------------------|--------------------------|
|-15\---------10s12-15----------------------|--------------------------|
|-14\---11h12----------14b16-12-14----12----|-9s11\-----9\----7\----4\-|
|----------------------------------14-------|--------------------------|
|----------------------------------------14-|-------10/----9/----7/----|
|-------------------------------------------|--------------------------|


  Em7                                     Cmaj7
                                                       ~~~~~~
  S  S E S S S S S  S  S  T  T  S  S       S  S  E     Q       +E   S S  E
|---------------------------------------|----12-------------------------------|
|---------------------------------------|-12----15b17-15pb17--(15)\-----------|
|------7-7-7s9-9-9s11-11s12-12-12-14b16-|-----------------------------7s14b16-|
|---------------------------------------|-------------------------------------|
|---/9----------------------------------|-------------------------------------|
|---------------------------------------|-------------------------------------|


   |--3--|
   S  S  S  E     +S   S      +S   +S      +S   E.    T T T T
|----12----15b17-(15)-15pb17r(15)-(15)b17r(15)-15pb17-x-x-x-x-|
|-12----12--------------------------------------------x-x-x-x-|
|-----------------------------------------------------x-x-x-x-|
|-------------------------------------------------------------|
|-------------------------------------------------------------|
|-------------------------------------------------------------|


  Em7
            ~~~~~~~
                       |------6-------|  |--3--|
   E     S  S  +E.  S  S  S  S  S  S  S  S  S  S
|-17b19-15-17-(17)-15-------15-------------------|
|---------------------17h19----19p15----17----15-|
|------------------------------------16----16----|
|------------------------------------------------|
|------------------------------------------------|
|------------------------------------------------|


                                     T           T           T           T           T
                            |--3--|  |-------------12:8---------------|  |------6-------|
   S     +E   S     +E   S  T  T  T  T  T  T  T  T  T  T  T  T  T  T  T  T  T  T  T  T  T
|-----------------------------15h19h22p19p17p15h20p19p17p15-------------22p19p17p15--------|
|-17b20-(17)-17b20-(17)\---17-------------------------------20p19p17p15-------------22p19p=|
|------------------------------------------------------------------------------------------|
|------------------------------------------------------------------------------------------|
|------------------------------------------------------------------------------------------|
|------------------------------------------------------------------------------------------|


  Cmaj7
         T           T           T           T           T           T           T       
   T           T           T
   |-------------12:8---------------|  |-------------12:8---------------|  
 |------6-------|
   T  T  T  T  T  T  T  T  T  T  T  T  T  T  T  T  T  T  T  T  T  T  T  T  T  T  T  T  T 

|-------------------22p19p17p15-------------------------22p19p17p15---------------|
|-17p15-20p19p17p15-------------22p19p17p15-20p19p17p15-------------22p19p17p15---|
|---------------------------------------------------------------------------------|
|---------------------------------------------------------------------------------|
|---------------------------------------------------------------------------------|
|---------------------------------------------------------------------------------|

T  T  T  T  T  T  T  T  T  T  T  T  T
----------22p19p17p15---------------------------|
20p19p17p15-------------22p19p17p15-20p19p17p15-|
------------------------------------------------|
------------------------------------------------|
------------------------------------------------|
------------------------------------------------|


  Cmaj7
   T           T           T           T
   |-------------12:8---------------|  |--3--|
   T  T  T  T  T  T  T  T  T  T  T  T  T  T  T  E   S     +E     T  T  T  T  T  T  T  T
|-------------22p19p17p15---------------------------------------------------------------|
|-22p19p17p15-------------22p19p17p15-20p19p17p15/-20b24-(20)\-/17h20-17h20----17s15----|
|---------------------------------------------------------------------------19-------17-|
|---------------------------------------------------------------------------------------|
|---------------------------------------------------------------------------------------|
|---------------------------------------------------------------------------------------|


  Em7
   T  T  T  T  T  T  T  T  T  T  T  T  T  T  T  T  T T T T  T T  T  T  T  T  T  T
|------------------------------------------------------------------------------------|
|-15s17----17s12----12s15----15s10----10s12----12s17---7s8----8s10----10s12----12----|
|-------------------------------------------12---------------------------------------|
|-------19-------14-------17-------12----------------9-----10------12-------14-------|
|------------------------------------------------------------------------------------|
|------------------------------------------------------------------------------------|


                                                  Q=
  Em7
          |--------6--------|  |--3--|
   Q      S  S  S  S  S     S  S  S  S  E      E
|-------------------------------------------------||
|-19b20--15-17----15------------------------------||
|--------------12----14b16-14-12-14----12b12.5----||
|-----------------------------------14------------||
|----------------------------------------------x\-||
|-------------------------------------------------||


 160
  Cmaj7
 4/4
      PM    PM      PM  PM~~~~~~    PM
  E E E E E E E E   E E E E +E  E E E
|-----------------|--------------------|
|-----------------|--------------------|
|-7-9---7-9---7-9-|---7---9-(9)-7-9----|
|-7-9---7-9---7-9-|---7---9-(9)-7-9----|
|-----------------|--------------------|
|-----8-----8-----|-8---8-----------8--|


  Cmaj7                                 Em7
                                                           3/4
      PM    PM      PM  PM~~~~~~
  E E E E E E E E   E E E E +E  E Q     E E E E  E E E E    E E E  E E E
|-----------------|-------------------|------------------||---------------||
|-----------------|-------------------|------------------||---------------||
|-7-9---7-9---7-9-|---7---9-(9)-7-9\--|------------------||---------------||
|-7-9---7-9---7-9-|---7---9-(9)-7-9\--|------------------||---------------||
|-----------------|-------------------|------------5-7---||----------5-7--||
|-----8-----8-----|-8---8-------------|-3-2-1-0-/7-----3-||-2-1-0-/7------||


  Em7                                 Cmaj7
 4/4                 3/4             4/4
                                          PM    PM      PM           ~~
  E E E E  E E E E    E E E  E E E    E E E E E E E E   E Q   E    E Q.
|------------------||--------------||-----------------|-------------------|
|------------------||--------------||-----------------|-------------------|
|------------------||--------------||-7-9---7-9---7-9-|---7--12b14-7-9----|
|------------------||--------------||-7-9---7-9---7-9-|---7---------------|
|------------5-7---||----------5-7-||-----------------|-------------------|
|-3-2-1-0-/7-----3-||-2-1-0-/7-----||-----8-----8-----|-8-----------------|


  Cmaj7
  E E E E Q   E  a       E     +Q    a       Q    +E   a       Q.
|-----------------------12--|-(12)----------14---(14)---------15\----|
|---------------15b17==(15)-|-(15)--17b19==(17)--(17)-18b20==(18)\---|
|-7-9---7-9\----------------|----------------------------------------|
|-7-9---7-9\----------------|----------------------------------------|
|---------------------------|----------------------------------------|
|-----8---------------------|----------------------------------------|


  Emaj7
                     3/4
  E E E E  E E E E    E E E  E E E
|------------------||---------------||
|------------------||---------------||
|------------------||---------------||
|------------------||---------------||
|------------5-7---||----------5-7--||
|-3-2-1-0-/7-----3-||-2-1-0-/7------||


  Em7                                 Am
 4/4                 3/4             4/4
                                                                       ~
  E E E E  E E E E    E E E  E E E    E Q  E +E  Q  E   +E  Q  E E Q   E
|------------------||--------------||-----------------|------------------|
|------------------||--------------||-----------------|------------------|
|------------------||--------------||-----------------|-----4--5---7\--2-|
|------------------||--------------||---------------7-|-(7)--------------|
|------------5-7---||----------5-7-||------------7----|------------------|
|-3-2-1-0-/7-----3-||-2-1-0-/7-----||-5-7--8-(8)------|------------------|


  F
   ~~~
  +H     E E  E  E    E  E  E E  S S E Q
|------------------|-----------------------|
|----------1s10-10-|-10--------------------|
|-(2)----2---------|----12-10-9h10p9s7-7\--|
|------------------|-----------------------|
|------------------|-----------------------|
|------------------|-----------------------|


  Am
                                    ~
  E Q  E +E  Q  E   +E  E E E E E E E
|-----------------|-------------------|
|-----------------|-------------------|
|-----------------|-----4---5---9s5-5-|
|---------------7-|-(7)---------------|
|------------7----|-------------------|
|-5-7--8-(8)------|-------------------|


  F
   ~~~     ~~~~~~      ~~~~~~~~~
                                                |--3--|
  +E  E  E E +E  E  E  E    +E   Q   E  +E   E  E  E  E
|------------------------|------------------------12----|
|------------------------|----------12-(12)-13-15----12-|
|-(5)-5s12s9-(9)-9s16s12-|-(12)-14----------------------|
|------------------------|------------------------------|
|------------------------|------------------------------|
|------------------------|------------------------------|


  Em7
                                     ~~~
   Q.      E  +Q    Q     +E   Q.    Q.    E
|-14b15---14-(14)------|------12-------------|
|------------------15--|-(15)-------12----15-|
|----------------------|---------------------|
|----------------------|---------------------|
|----------------------|---------------------|
|----------------------|---------------------|


  Cmaj7
                                   |--3--|  |--3--|
   +Q    Q   +E   Q.      Q.    E  E  E  E  E  E  E
|----------------------|----------------------------|
|-(15)-----------12----|----------------------------|
|-------14--(14)-------|-12----14s11s14-------12----|
|----------------------|----------------12h14----12-|
|----------------------|----------------------------|
|----------------------|----------------------------|


  Am
                           ~~~~~~~~~
   Q.      E  Q   E  E   E Q  E +E   Q.
|----------------------|-------------------|
|----------------------|-------------------|
|-16b17---16-14--12s14s|=9-9--9-(9)-12\----|
|----------------------|-------------------|
|----------------------|-------------------|
|----------------------|-------------------|


  F
                                                   3/4
  a     Q   E     E     E     E     E  a      E      +E   E      E      E      E     E
|------------------------------------------------||------------------------------------||
|-------6---6-----6-----6-----6--------------10--||-(10)-10-----10-----10-----10-------||
|-8b10-(8)--8pb10-8pb10-8pb10-8pb10---12b14-(12)-||-(12)-12pb14-12pb14-12pb14-12pb14---||
|------------------------------------------------||------------------------------------||
|------------------------------------------------||------------------------------------||
|------------------------------------------------||------------------------------------||


 4/4                                                   3/4
   a     Q   E      E      E      E     E  a      E      +E   E      E      E      E     E
|------------------------------------------------13--||-(13)-13-----13-----13-----13-------||
|-------13--13-----13-----13-----13-------16b18-(16)-||-(16)-16pb18-16pb18-16pb18-16pb18---||
|-15b17-15--15pb17-15pb17-15pb17-15pb17--------------||------------------------------------||
|----------------------------------------------------||------------------------------------||
|----------------------------------------------------||------------------------------------||
|----------------------------------------------------||------------------------------------||


 Outro
  E=160
  Em7
 7/8
               ~~~~~~~~~~~~~~~~~~~~~
   a      Q    H         +E     +Q    +Q    Q  E
|--------12---12--------(12)-|-(12)--(12)\-------|
|-15b17-(15)--15pb17----(15)-|-(15)--(15)\-------|
|----------------------------|-------------------|
|----------------------------|-------------------|
|----------------------------|-------------------|
|----------------------------|-------------------|


  PM----|        PM----|          PM----|        PM----|
  S S S S  S S S S S S S  S S S   S S S S  S S S S S S S  S S S
|-------------------------------|----------------------------------|
|-------------------------------|----------------------------------|
|-------------------------------|----------------------------------|
|-------------------------------|----------------------------------|
|------------5-7------------5-7-|------------5-7------------5-7----|
|-3-2-1-0-/7-----3-2-1-0-/7-----|-3-2-1-0-/7-----3-2-1-0-/7--------|


  Em7
   S S S S  S S S  S S S S  S S S    S S S S  S S S  S S S S  S S S
|---------------------------------|---------------------------------|
|---------------------------------|---------------------------------|
|-------------7-9-------------7-9-|-------------7-9-------------7-9-|
|----------/9--------------/9-----|----------/9--------------/9-----|
|-10-9-8-7--------10-9-8-7--------|-10-9-8-7--------10-9-8-7--------|
|---------------------------------|---------------------------------|


   S  S  S  S   S  S  S  S  S  S  S   S  S  S    S  S  S  S   S  S  S  S  S  S  S   S  S 
S
|---------------------------------------------|---------------------------------------------*|
|-----------------15-17-----------------15-17-|-----------------15-17-----------------15-17-*|
|-------------/16-------------------/16-------|-------------/16-------------------/16-------*|
|-17-16-15-14-----------17-16-15-14-----------|-17-16-15-14-----------17-16-15-14-----------*|
|---------------------------------------------|---------------------------------------------*|
|---------------------------------------------|---------------------------------------------*|

Duration Legend
---------------
W - whole; H - half; Q - quarter; E - 8th; S - 16th; T - 32nd; X - 64th; a - acciaccatura
+ - note tied to previous; . - note dotted; .. - note double dotted
Uncapitalized letters represent notes that are staccato (1/2 duration)
Irregular groupings are notated above the duration line
Duration letters will always appear directly above the note/fret number it represents the
duration for.  Duration letters with no fret number below them represent rests.  Multi-
bar rests are notated in the form Wxn, where n is the number of bars to rest for.  Low
melody durations appear below the staff

Tablature Legend
----------------
 h   - hammer-on
 p   - pull-off
 b   - bend
 pb  - pre-bend
 r   - bend release (if no number after the r, then release immediately)
 /\  - slide into or out of (from/to "nowhere")
 s   - legato slide
 S   - shift slide
 - natural harmonic
[n]  - artificial harmonic
n(n) - tapped harmonic
 ~   - vibrato
 tr  - trill
 T   - tap
 TP  - trem. picking
 PM  - palm muting
\n/  - tremolo bar dip; n = amount to dip
 \n  - tremolo bar down
 n/  - tremolo bar up
/n\  - tremolo bar inverted dip
 =   - hold bend; also acts as connecting device for hammers/pulls
 <> - volume swell (louder/softer)
 x   - on rhythm slash represents muted slash
 o   - on rhythm slash represents single note slash

Misc Legend
-----------
 |  - bar
||  - double bar
||o - repeat start
o|| - repeat end
*|  - double bar (ending)
 :  - bar (freetime)
 $  - Segno
 &  - Coda
Tempo markers -  = BPM(8/16=s8/s16), where s8 = swing 8ths, s16 = swing 16ths





Comments


Popular Andy Timmons tabs & chords
The Spoken And The Unspoken Bass Tabs
Turn Away Bass Tabs
Deliver Us Tabs
Electric Gypsy Tabs
Electric Gypsy Intro Tabs
Groove Or Die Tabs
Resolution Tabs
September Tabs
Strawberry Fields Forever Intro Tabs
The Spoken And The Unspoken Tabs


Song lyrics



↑ Back to top | Tablatures and chords are parodies/interpretations of the original songs. You may use it for private study, scholarship, research or language learning purposes only
© 2014 AZChords.com Contact us | Privacy policy | DMCA | Add/correct tabs | Request tabs | Top 50 tabs