>
 >
Resolution

Resolution Guitar Tabs

Andy Timmons - Resolution chords, tabs, tablatures, lyrics

Guitar lessons | Add/correct | Request | Top 50 tabs Artists:  A B C D E F G H I J K L M N O P Q R S T U V W X Y Z 0-9

Resolution Guitar Tabs – Andy Timmons

CD, Sheet music, Poster

Do you like Resolution? Share with your friends now
Tabs
                          Resolution                                 
                         Andy Timmons

Tuned to Drop D
I also have the Guitar Pro 5 file but I guess we cant upload those anymore (?), 
so message me if you want it (cados121)



     H.           E.  S    S  E  S E.   S E.  S E    S.T  
E||---------------------|--------------------------------|
B||---------------------|--------------------------------|
G||---------------------|--4h-6----6S---9-9-----9h--11---|
D||---------------------|--------------------------------|
A||-------------------0-|--------0------------0--------0-|
D||---------------------|--------------------------------|


  S   Q     S  E   S   T   T E  S  T T S S    S  E  S E.   S E.  S E    S.T  
-------------------------------------------|--------------------------------|
-------------------------------------------|--------------------------------|
--9h-11-----L-14--11h-14p-11-9--9-11-9-4---|--4h-6----6S---9-9-----9h--11---|
-------------------------------------------|--------------------------------|
-----------------------------------------0-|--------0------------0--------0-|
-------------------------------------------|--------------------------------|


  S   Q     S  E   S   T   T E  S  T T S S    S  E  S E.   S E.  S E    S.T  
-------------------------------------------|--------------------------------|
-------------------------------------------|--------------------------------|
--9h-11-----L-14--11h-14p-11-9--9-11-9-4---|--4h-6----6S---9-9-----9h--11---|
-----------------------------------------0-|--------0------------0--------0-|
-------------------------------------------|--------------------------------|
-------------------------------------------|--------------------------------|


  S   Q     S  E   S   T   T E  S  T T S S    S  E  S E.   S E.  S E    E   
-------------------------------------------|-------------------------------|
-------------------------------------------|-------------------------------|
--9h-11-----L-14--11h-14p-11-9--9-11-9-4---|--4h-6----6S---9-9-----9h--11--|
-------------------------------------------|-------------------------------|
-----------------------------------------0-|--------0------------0---------|
-------------------------------------------|-------------------------------|


  S   H.            S E     S  E  S E.   S E.  S E    S.T  
-------------------------|--------------------------------|
-------------------------|--------------------------------|
--9h-11-------------L-4--|--4h-6----6S---9-9-----9h--11---|
-------------------------|--4h-6----6S---9-9-----9h--11---|
-------------------------|--------0------------0--------0-|
-------------------------|--------------------------------|


  S   Q     S  E   S   T   T E  S   T T S S    S  E  S E.   S E.  S E    S.T  
--------------------------------------------|--------------------------------|
--------------------------------------------|--------------------------------|
--9h-11-----L-14--11---------9--9p------4-4-|--4h-6----6S---9-9-----9h--11---|
--9h-11-------14--11h-14p-11-9--9--11-9-4---|--4h-6----6S---9-9-----9h--11---|
------------------------------------------0-|--------0------------0--------0-|
--------------------------------------------|--------------------------------|


  S   Q     S  E   S   T   T E  S   T  T S S    S  E  S E.   S E.  S E    S.T  
---------------------------------------------|--------------------------------|
---------------------------------------------|--------------------------------|
--9h-11-----L-14--11---------9--9------9-4-4-|--4h-6----6S---9-9-----9h--11---|
--9h-11-------14--11h-14p-11-9--9h-11p-9-4---|--4h-6----6S---9-9-----9h--11---|
---------------------------------------------|--------------------------------|
-------------------------------------------0-|--------0------------0--------0-|


  S   Q     S  E   S   T   T E  S   T  T S S    S  E  S E.   S E.  S E    S.T  
---------------------------------------------|--------------------------------|
---------------------------------------------|--------------------------------|
--9h-11-----L-14--11------11-9--9------9-4-4-|--4h-6----6S---9-9-----9h--11---|
--9h-11-------14--11h-14p-11-9--9h-11p-9-4---|--4h-6----6S---9-9-----9h--11---|
-------------------------------------------0-|--------0------------0--------0-|
---------------------------------------------|--------------------------------|


  S   Q     S  E   E   E   E.  S     E  Q     Q    Q    S  S    E  Q    Q    Q    E   
---------------------------------|---------------------------|-----------------------|
---------------------------------|--10--9--------------------|-----0---------0-------|
--9h-11-----L-14--14--16--18-----|---7-------11----9---------|--6--------------------|
--9h-11-------14--14--16--18-----|---0-----------------------|----------7---------0--|
-------------------------------0-|----------------------5S-7-|--L--------------------|
---------------------------------|---------------------------|-----------------------|


   E  Q     E.  S  E.   S   E      E.   S  S  S  E.   E   S  S  S  S  S  
-------------------------------|----------------------------------------|
--10--9-----------10---12S-14--|--14------14----12-------12-------12----|
---7-------11------------------|--14---------14-14----------14----14-14-|
---0------------0--------------|--11---11-------11---11--------11-11-11-|
-------------------------------|---0-------------0--------------0--0--0-|
-------------------------------|----------------------------------------|


   E   S  S  S  S  E.   S  E   S  E   S     E.   S  S  S  E.   E   S  S  S  S  S  
----------------------------------------|----------------------------------------|
--14-----14-------12-------------17--14-|--14------14----12-------12-------12----|
--11--------11----11---14-14--14-14--14-|--14---------14-14----------14----14-14-|
--11--11-------11-11---11-11--11-11--11-|--11---11-------11---11--------11-11-11-|
---0------------------------------0-----|---0-------------0--------------0--0--0-|
-------------------------------0--------|----------------------------------------|


   E   S  S  S  S  E.   S  E   S  E   S     E.   S  S  S  E.   E   S  S  S  S  S  
----------------------------------------|----------------------------------------|
--14-----14-------12-------------17--14-|--14------14----12-------12-------12----|
--11--------11----11---14-14--14-14--14-|--14---------14-14----------14----14-14-|
--11--11-------11-11---11-11--11-11--11-|--11---11-------11---11--------11-11-11-|
---0------------------------------0-----|---0-------------0--------------0--0--0-|
-------------------------------0--------|----------------------------------------|


   E   S  S  S  S  E.   S  E   S  E   S     E.   S  S  S  E.   E   S  S  S  S  S  
----------------------------------------|----------------------------------------|
--14-----14-------12-------------17--14-|--14------14----12-------12-------12----|
--11--------11----11---14-14--14-14--14-|--14---------14-14----------14----14-14-|
--11--11-------11-11---11-11--11-11--11-|--11---11-------11---11--------11-11-11-|
---0------------------------------0-----|---0-------------0--------------0--0--0-|
-------------------------------0--------|----------------------------------------|


   E   E   E   Q    E  E  S S    S   E   S   H        S  S   E   
--------------------0---------|---------------------------------|
------10----------------------|---------------------------------|
--13------13--11-------4------|---------------------------------|
---0----------------------7---|--9S-11--11S-14----------14S-16--|
----------------------------0-|--L--------------------0---------|
------------------------------|---------------------------------|


   E   T   Q     T S S  S S S S S  S S    S   E   S   E   Q.     S  S   E   
---------------------------------------|-----------------------------------|
--------------------------0------------|-----------------------------------|
---------------------------------------|-----------------------------------|
---L--16S-11-----L---7S-9---9---9S-7---|--9S-11--11S-14--14--------14S-16--|
-------------------0-----------------0-|--L----------------------0---------|
---------------------------------------|-----------------------------------|


   E   S   E  S S  S S   S S E  E  S     S S Q    S E  S S S S E.     S Q     Q     E.  S E.    
--------------------------------------|----------------------------|---------------------------|
--------------------------------------|----------------------------|---------------------------|
--------------------------------------|--------------------4---4---|--6------------------------|
---L--16S-11----7S-9-9S-11-9-7--6--6S-|--4---4------4--4-7---7-----|----4S----7S----4-----4S---|
--------------0-----------------------|----------------------------|---------------------------|
--------------------------------------|----0------0----------------|--------------------0------|


  S Q    Q.     S S T  E   T     S S T  E.  S T  E.  S T   T  S  S S S   
-----------------------------|------------------------------------------|
-----------------------------|------------------------------------------|
-----------------------------|-----6-4h-6---9-6h-9---9-9h-11p-9S-6---6S-|
----2----7------7-9-7h-9---L-|---L--------------------------------------|
--0--------------------------|-------------------------------------0----|
-----------------------------|------------------------------------------|


  E  S S   S  Q    S  S  S S  E.     S S S S S S S  S E.  S  T T  S S S   
----------------------------------|--------------------------------------|
----------------------------------|--------------------------------------|
--9----9S-11S-6-------------------|-----------------------9-11-9S-6---6h-|
---------------------\9S-7-7S-9---|--L---9---9---9S-7-7------------------|
-----0-------------0--------------|----0---0---0--------------------0----|
----------------------------------|--------------------------------------|


  E  S S   S  E.  S E.  S  E.     S  E.  S  S  S  T   S. S  E   E   S   S  
-------------------------------|------------------------------------------|
-------------------------------|-----------10-12-12h-14-12-10-------------|
--9----9S-11S-6-----9-----11---|----14-------------------------13--13S-11-|
-------------------------------|------------------------------------------|
-----0------------0-----0------|--0------0--------------------------------|
-------------------------------|------------------------------------------|


  S  Q    S  E   S  S  S  S  E.   S     E.   S   E.   S   E.  S  E   S S    Q    Q.      S S Q      
------------------------------------|------------------------------------|-------------------------|
----------------------12----12---14-|------------------------------------|-------9b----------------|
----11------11--11-14----14---------|--11----LS-14---14S-11-----11S--9---|--9------------7-6-Lb----|
--0-------0-------------------------|--------0----------------0----------|-------------------------|
------------------------------------|----------------------------------0-|-------------------------|
------------------------------------|------------------------------------|-------------------------|


  S Q    S S S  S   S S   S S  S    S   S Q     Q    Q    S  S    E  Q    Q    Q    E   
---------------------------------|-----------------------------|-----------------------|
----------------------------9-10-|--9h-10-9--------------------|-----0---------0-------|
--6-------------------9h-11------|--7---L------11----9---------|--6--------------------|
----7--------7h-9S-11------------|--0---L----------------------|----------7---------0--|
---------7-9---------------------|------------------------5S-7-|--L--------------------|
---------------------------------|-----------------------------|-----------------------|


   E  Q     E.  S  E.   S   E      E.   S  S  S  E.   E   S  S  S  S  S  
-------------------------------|----------------------------------------|
--10--9-----------10---12S-14--|--14------14----12-------12-------12----|
---7-------11------------------|--14---------14-14----------14----14-14-|
---0------------0--------------|--11---11-------11---11--------11-11-11-|
-------------------------------|---0-------------0--------------0--0--0-|
-------------------------------|----------------------------------------|


   E   S  S  S  S  E.   S  E   S  E   S     E.   S  S  S  E.   E   S  S  S  S  S  
----------------------------------------|----------------------------------------|
--14-----14-------12-------------17--14-|--14------14----12-------12-------12----|
--11--------11----11---14-14--14-14--14-|--14---------14-14----------14----14-14-|
--11--11-------11-11---11-11--11-11--11-|--11---11-------11---11--------11-11-11-|
---0------------------------------0-----|---0-------------0--------------0--0--0-|
-------------------------------0--------|----------------------------------------|


   E   S  S  S  S  E.   S  E   S  E   S     E.   S  S  S  E.   E   S  S  S  S  S  
----------------------------------------|----------------------------------------|
--14-----14-------12-------------17--14-|--14------14----12-------12-------12----|
--11--------11----11---14-14--14-14--14-|--14---------14-14----------14----14-14-|
--11--11-------11-11---11-11--11-11--11-|--11---11-------11---11--------11-11-11-|
---0------------------------------0-----|---0-------------0--------------0--0--0-|
-------------------------------0--------|----------------------------------------|


   E   S  S  S  S  E.   S  E   S  E   S     E.   S  S  S  E.   E   S  S  S  S  S  
----------------------------------------|----------------------------------------|
--14-----14-------12-------------17--14-|--14------14----12-------12-------12----|
--11--------11----11---14-14--14-14--14-|--14---------14-14----------14----14-14-|
--11--11-------11-11---11-11--11-11--11-|--11---11-------11---11--------11-11-11-|
---0------------------------------0-----|---0-------------0--------------0--0--0-|
-------------------------------0--------|----------------------------------------|


   E   E   E   E   E  E  E  E      E  E  E  E  E   E  T   S.S S    E  E  E  E  E  E   E  E   
----------------------0---------|-------------------------------|---------------------------|
------10----------10------------|-------------------------------|---------------------------|
--13------13--11---------4--6S--|--7-----7-----7h--9--9S-11-7-L-|--------7-----7--9--11--7--|
---0----------------------------|-----0-----0-------------------|-----0-----0---------------|
--------------------------------|-------------------------------|---------------------------|
--------------------------------|-------------------------------|--5------------------------|


  E  E  E  E  E   E   E     Q    E  E  Q    E  E     Q    E  E  E  E  E    E   
-------------------------|------------------------|---------------------------|
-------------------------|-------------8----7-----|---------------------------|
--------7-----7S--9--11--|--6----7----------------|--7-------7-----7--9S--11--|
-----0-----0-------------|------------------------|---------------------------|
-------------------------|--0---------------------|---------------------------|
--0----------------------|-------------8----------|--9----9-----9-------------|


  Q    E  E  E  E   E  S S    E  Q    E  Q    E  E      Q    Q    Q    E  S. T  
---------------------------|-------------------------|-------------------------|
---------------------------|-------------------------|-------------------------|
--7-------7-----7S--5--3---|--2--L-------2----4--5S--|--5----4----5----7--L----|
---------------------------|-------------------------|-------------------------|
---------------------------|-------------------------|-----------------------0-|
--8----8-----8--8S--7--5---|--3--L----3--------------|--5----------------------|


  S  E  S E.   S E.  S E    S.T    S   Q     S  E   S   T   T E  S  T T S S  
--------------------------------|-------------------------------------------|
--------------------------------|-------------------------------------------|
--4h-6----6S---9-9-----9h--11---|--9h-11-----L-14--11h-14p-11-9--9-11-9-4---|
--------------------------------|-------------------------------------------|
--------0------------0--------0-|-----------------------------------------0-|
--------------------------------|-------------------------------------------|


  S  E  S E.   S E.  S E    S.T    S   Q     S  E   S   T   T E  S  T T S S  
--------------------------------|-------------------------------------------|
--------------------------------|-------------------------------------------|
--4h-6----6S---9-9-----9h--11---|--9h-11-----L-14--11h-14p-11-9--9-11-9-4---|
--------------------------------|-----------------------------------------0-|
--------0------------0--------0-|-------------------------------------------|
--------------------------------|-------------------------------------------|


  S  E  S E.   S E.  S E    S.T    S   Q     S  E   S   T   T E  S  T T S S  
--------------------------------|-------------------------------------------|
--------------------------------|-------------------------------------------|
--4h-6----6S---9-9-----9h--11---|--9h-11-----L-14--11h-14p-11-9--9-11-9-4---|
--------0------------0--------0-|-------------------------------------------|
--------------------------------|-----------------------------------------0-|
--------------------------------|-------------------------------------------|


  S  E  S E.   S E.  S E    E     S   H.            E  S    S   S H        E  S  T T  S S  
-------------------------------|-------------------------|--------------------------------|
-------------------------------|-------------------------|--------------------------------|
--4h-6----6S---9-9-----9h--11--|--9h-11-------------L----|--------9--------L--9-11-9S-6---|
-------------------------------|-----------------------7-|--9S-11-------------------------|
--------0------------0---------|-------------------------|--0---------------------------0-|
-------------------------------|-------------------------|--------------------------------|


  S   S Q    S S S   S S  T  S. E  S    S  S  S E  S T T S E.  S S S S  S  
-------------------------------------|------------------------------------|
-------------------------------------|------------------------------------|
--9S-11-9----L---------9-------------|--2h-4S-6-4----6-4-2-2-----2-4------|
-----------------9S-11---11S-9--7----|-------------------------------2S-4-|
---------------0---------------------|------------------------------------|
-----------------------------------0-|-------------0-----------0----------|


  E   S  E.  S S S E  E  S S S    T E  T E.  T  E   T E  S S S S S  
-------------------------------|-----------------------------------|
-------------------------------|-----------------------------------|
-----------------2-4--4--2-----|-------------2S-4S--L-2----2-4-6---|
--LS--7S-4-----4-----------4-2-|--2-4--L-2-------------------------|
-------------------------------|--0----------------------0-------0-|
-------------0-----------------|-----------------------------------|


  T  E  T E  S E.  E  S S S S S    T   E    T  E.    E.   E  S  S   E   T   T   
--------------------------------|----------------------------------------------|
----------------------------7---|--7S-10S---L-12b------------------------------|
--4S-6--L-4----9---6----6-9-----|-------------------11---11----11S-14--14S-16S-|
--------------------------------|----------------------------------------------|
-------------0--------0---------|----------------------------------------------|
------------------------------0-|----------------------------0----------0------|


   S  E   E    S S   E   E   E  S S S    E  E  E  E.   S Q     E   
--------------------------------------|---------------------------|
--------------------------------------|---------------------------|
--11-11--11S-----9h-11--11--11--9-7-6-|-----2--2--4S---6-9S----6--|
--------------11----------------------|---------------------------|
--------------------------------------|--0------------------------|
--------------------------------------|---------------------------|


  E.  S S S S S  E    S   T   T   E  S S    S   E.   S S Q     S T T. E  T T T.  
--------------------------0--------------|--------------------------------------|
-----------------------------------------|--------------------------------------|
--L---------6---13b--13S-14S-13S-11--9---|--9S-11------9-9b----L-9-6--9--L-6-4--|
--------7-9----------------------------0-|----------11--------------------------|
------0-------0--------------------------|--------------------------------------|
-----------------------------------------|--------------------------------------|


  E  X  X  S  S  S  E.  T S  S S S  S  S  S    S  S Q    Q    E    E   E   
--------------------------------------------|-----------------------------|
--------------------------------------------|-----------------------------|
--6--6p-4p-2h-4S-6S-4---L------2-4h-6p-4S-2-|-----------------9S--11S--6--|
--------------------------2h-4--------------|--2h-4-2----7----------------|
--------------------------------------------|--0--------------------------|
--------------------------------------------|-----------------------------|


  E  S S S S  S S  Q     Q       E.  S S  S S E   E   S  S   S  S  S  
-------------------0-----0----|--0--------0---0----------0---------0-|
----------------0-------------|--7---7-7h-9-9-9--10--10-10S-12--L-12-|
--L----6-6-9-11---14----13----|--------------------------------------|
------------------------------|--0-----0------0-------0--0------0----|
--0--L------------------------|--------------------------------------|
------------------------------|--------------------------------------|


   S   S  S  S  S   S  S  E   E   S  S  S  S S     E.   E.   E.   E.   E.   S  
-------0------------0---------0----------------|------------------------------|
--12S-10--L-10-10S-12--L-12--14-----14-15-17---|--17-------------14--------17-|
---------------------------------14------------|-------14---16--------14------|
----------0------------0-----------------------|------------------------------|
---------------------------------------------0-|------------------------------|
-----------------------------------------------|------------------------------|


   E   E.   E.   E   S  E   S  E   
----------------------------------|
---L------------14-----17-----17--|
------14---16-------14-----14-----|
----------------------------------|
----------------------------------|
----------------------------------|


   Optional Low D (can Play open 3rd string D)                                     
   T                                           T   E   E   S  E.   E  S  S  S  E   
----------------------------------------------------------------------------------|
--17h-----------------------------------------19S-14--14--12-12------------12-14--|
------------------------------------------------------------------14----14--------|
----------------------------------------------------------------------0-----------|
----------------------------------------------------------------------------------|
---0------------------------------------------------------------------------------|


  T   S. S E   T.  T. T. T. T   T   T  T  T. T. T.T.  T. T.S.    H         T  T  S. T E  X  X E  T  
--------------------------------------------------------------|------------------------------------|
--------10-----------10-14-12h-14p-12----12-10-------10----7--|--L---------------------------------|
--9h-11----9b--9--11------------------14-------11-9-----11-9b-|--Lb--------9p-6S-9b-6-9--6h-9-9--6-|
--0--------0--------------------------------------------------|------------------------------------|
--------------------------------------------------------------|------------------------------------|
--------------------------------------------------------------|------------------------------------|


  E  T  T  T  T  T  T  S. T  T T T  T  T  T  T  T T T  T  T  T  T T S.  
-----------------------------------------------------------------------|
-----------------------------------------------------------------------|
--7--4h-6h-7p-6p-4h-6S-7p-6p-4---4S-6h-7p-6h-7p-6---6h-7p-6h-7p-6---9b-|
-------------------------------7------------------9---------------9----|
-----------------------------------------------------------------------|
-----------------------------------------------------------------------|


   E.  E  Q    S S  S S S   S  S     S   S  S  S   S  S  S   S  S  S   S  S  S  S  E   
----------2----L-----------------|----------------------------------------------------|
----------5----L-----------------|----------------------------------------------------|
---L------2----L-7S-9-9-9S-11-11-|--11S-13-13-13S-14-14-14S-16-16-16S-19-19-19-19-18--|
----------0----L-0----0--------0-|---0---------0---------0---------0------------0-----|
---------------------------------|----------------------------------------------------|
-------0-------------------------|----------------------------------------------------|


  E.  E.  E.  S S S S S E     E.  E.  E.  S  S  S  S E.     E.  E.  E.  S S S S E.   
---------------------------|-----------------------------|--------------------------|
------5---3---2-3-2-3-2----|------5---3---2h-3p-2h-3-5---|------5---3---2-3-2-3-5---|
--2---------------------2--|--2--------------------------|--2-----------------------|
--2------------------------|--2--------------------------|--0-----------------------|
--0------------------------|--0--------------------------|--0-----------------------|
---------------------------|-----------------------------|--0-----------------------|


  S   S  S  S   E   S   S S  S  S S  E.   T  T     E.   E.   E.   S   S   S   S   S  E   
-----------------------------------------------|----------------------------------------|
-----------------------------------------------|-------17---15---14h-15p-14h-15p-14-----|
--9S-11-11-11S-14--14S-16---16-18---19---18-16-|--14--------------------------------14--|
--0-----------------------0-------0------------|----------------------------------------|
-----------------------------------------------|---0------------------------------------|
-----------------------------------------------|----------------------------------------|


   E.   E.   E.   S   S   S   S   E.    
---------------------------------------|
-------17---15---14h-15p-14h-15h-17b---|
--14-----------------------------------|
---------------------------------------|
---0-----------------------------------|
---------------------------------------|


   |--3--|  |---3--|   |--3--|   |--3--|  |---3--|   |--3--|   |--3--|  |---3--|   
   S  S  S  S   S  S   S  S  S   S  S  S  S   S  S   S  S  S   S  S  S  S   S  S   
--14------------------14--------14------------------14--------14------------------|
-----17-14-----14-17b----14-17b----14-17-----14-17b----14-17b----17-14-----14-17b-|
-----------16b---------------------------16b---------------------------16b--------|
----------------------------------------------------------------------------------|
----------------------------------------------------------------------------------|
----------------------------------------------------------------------------------|


                                          Pick Slide                                               
   |--3--|   |--3--|  |---3--|   |--3--|                                                           
   S  S  S   S  S  S  S   S  S   S  S  S  Q         Q        E.   S  S  S  E.   E   S  S  S  S  S  
--14--------14------------------14-------17b-------------|----------------------------------------|
-----14-17b----17-14-----14-17b----17-14-----------------|--14------14----12-------12-------12----|
---------------------16b---------------------------------|--14---------14-14----------14----14-14-|
---------------------------------------------------------|--11---11-------11---11--------11-11-11-|
---------------------------------------------------------|---0-------------0--------------0--0--0-|
---------------------------------------------------------|----------------------------------------|


   E   S  S  S  S  E.   S  E   S  E   S     E.   S  S  S  E.   E   S  S  S  S  S  
----------------------------------------|----------------------------------------|
--14-----14-------12-------------17--14-|--14------14----12-------12-------12----|
--11--------11----11---14-14--14-14--14-|--14---------14-14----------14----14-14-|
--11--11-------11-11---11-11--11-11--11-|--11---11-------11---11--------11-11-11-|
---0------------------------------0-----|---0-------------0--------------0--0--0-|
-------------------------------0--------|----------------------------------------|


   E   S  S  S  S  E.   Q      S  E         E.   S  S  S  E.   E   S  S  S  S  S  
------------------------0---------------|----------------------------------------|
--14-----14-------12---17b-----L-17pbr--|--14------14----12-------12-------12----|
--11--------11----11--------------------|--14---------14-14----------14----14-14-|
--11--11-------11-11--------------------|--11---11-------11---11--------11-11-11-|
---0------------------------------------|---0-------------0--------------0--0--0-|
----------------------------------------|----------------------------------------|


   E   S  S  S  S  E.   S  E   S  E   S     E.   S  S  S  E.   E   S  S  S  S  S  
----------------------------------------|----------------------------------------|
--14-----14-------12-------------17--14-|--14------14----12-------12-------12----|
--11--------11----11---14-14--14-14--14-|--14---------14-14----------14----14-14-|
--11--11-------11-11---11-11--11-11--11-|--11---11-------11---11--------11-11-11-|
---0------------------------------0-----|---0-------------0--------------0--0--0-|
-------------------------------0--------|----------------------------------------|


   T   S. E   E   H         E      T   S. E   E   H         E      T   S. E   E   H         E   
-------------------------------|-------------------------------|-------------------------------|
---------10--------------------|---------10--------------------|---------10--------------------|
--12S-13-----13--11---------L--|--12S-13-----13--11---------L--|--12S-13-----13--11---------L--|
---0---------------------------|---0---------------------------|---0---------------------------|
-------------------------------|-------------------------------|-------------------------------|
-------------------------------|-------------------------------|-------------------------------|


   T   S. E   E   H         E    
-------------------------------||
---------10--------------------||
--12S-13-----13--11---------L--||
---0---------------------------||
-------------------------------||
-------------------------------||




Duration Legend
---------------
W - whole
H - half
Q - quarter
E - 8th
S - 16th
T - 32nd
X - 64th
. - note dotted
|-n-|  - n-tuplets


Tablature Legend
----------------
L - tied note
x - dead note
g - grace note
(n) - ghost note
> - accentuded note
NH - natural harmonic
AH - artificial harmonic
TH - tapped harmonic
SH - semi harmonic
PH - pitch harmonic
h - hammer on
p - pull off
b - bend
br - bendRelease
pb - preBend
pbr - preBendRelease
brb - bendReleaseBend
\n/ - tremolo bar dip
\n - tremolo bar dive
-/n - tremolo bar Release up
/n\ - tremolo bar inverted dip
/n - tremolo bar return
-\n - tremolo bar Release down
S - shift slide
s - legato slide
/ -  slide into from below or out of upwards
\ -  slide into from above or out of downwards
~ - vibrato
W - wide vibrato
tr - trill
TP - tremolo picking
T - tapping
S - slap
P - pop
< - fade in
^ - brush up
v - brush down





Comments


Popular Andy Timmons tabs & chords
The Spoken And The Unspoken Bass Tabs
Turn Away Bass Tabs
Deliver Us Tabs
Electric Gypsy Intro Tabs
Falling Down Intro Tabs
Farmer Sez Tabs
September Tabs
Strawberry Fields Forever Intro Tabs
Super 70s Tabs
The Spoken And The Unspoken Tabs


Song lyrics



↑ Back to top | Tablatures and chords are parodies/interpretations of the original songs. You may use it for private study, scholarship, research or language learning purposes only
© 2014 AZChords.com Contact us | Privacy policy | DMCA | Add/correct tabs | Request tabs | Top 50 tabs