» » »

Farmer Sez Tabs (ver.1)

Artists:  A B C D E F G H I J K L M N O P Q R S T U V W X Y Z # 

Farmer Sez Tabs (ver.1)

Andy Timmons
Rating:
0/5 (0 votes)

Hard to play? Try these video lessons and learn fast.
                
FARMER SEZ
As recorded by Andy Timmons
(From the 2002 Album THAT WAS THEN, THIS IS NOW)

        

Music by Andy Timmons

Gtr I (Eb Ab Db Gb Bb Eb) - 'Untitled'

              Intro
  Q=146
           $
               A
 4/4
               Gtr I
  W            E S S S S  S  S S  S  S S  S  S E  4x
|----------||-------------------------------------||
|----------||o-----------------------------------o||
|----------||----5s6---4-------2-(2)---2-(2)---2--||
|----------||----4s5---5p(0)---2p=0----2h=4----2--||
|----------||o-0-----0-------0-------0-------0---o||
|----------||-------------------------------------||


    D
    |-3-|
    S S S S S S S S S S S S S S S S S
||-------------------------------------||
||o-----------------------------------o||
||--------5-----5-----5-----5-----5s7--||
||--------5p0---5p0---5p0---5p0---5s7--||
||o-0h5h7-----7-----7-----7-----7-----o||
||-------------------------------------||


      A
      E S S S S  S  S S  S  S S  S  S E
|-||-------------------------------------||
|-||o-----------------------------------o||
|-||----5s6---4-------2-(2)---2-(2)---2--||
|-||----4s5---5p(0)---2p=0----2h=4----2--||
|-||o-0-----0-------0-------0-------0---o||
|-||-------------------------------------||


  E                                 D
  S S S S S S S S S S S S S S S S   S S S S S S  S  S  S  S E  E  +E
|---------------------------------|---------------------------10-(10)/--|
|---------------------------------|-------------------------------------|
|---------------------------------|-----7s6---5p(0)---10s11---11--------|
|---------7---5h6-----------------|--------------------9s10---10-(10)/--|
|-----7-7---7-----7p5---7p5-----5-|-7s9-------------0-------------------|
|-5-0-----------------7-----5h7---|-------------------------------------|


                             To Coda
  A                                                 E
  E S S S S  S  S S  S  S S  S  S E   E S S S S S S E  Q   S S
|-----------------------------------|------------------0-------||
|-----------------------------------|------------------0-------||
|---5s6---4-------2-(2)---2-(2)---2-|---5s6---4--------x---9-7-||
|---4s5---5p(0)---2p=0----2h=4----2-|---4s5---5--------2-------||
|-0-----0-------0-------0-------0---|-0-----0---0-0------------||
|-----------------------------------|---------------0-(0)------||


 Guitar Solo
  A
                                        |-3-|
  S S S S     S S S S     S T T S S S S S S S
|-------------5-------------------------------|
|-----5h7b7.5---5h8-------5-------------------|
|-5h6---------------7b7.5---8p7p5---7---5h6p5-|
|---------------------------------7---7-------|
|---------------------------------------------|
|---------------------------------------------|


  S S S S S S  S S  S  S  S  S  S  S  S     S
|------------------------------------------10h==|
|------------------------10h12----10-13b14------|
|----------------9h10h11-------11---------------|
|-7-5-----7-9s11--------------------------------|
|-----7s9---------------------------------------|
|-----------------------------------------------|


   S  S  S  T  T  S  S  S  S  S S  S S S  S S S
|-12----10--------------------------------------|
|----13----13p12p10----12----10s9----9p0----8p0-|
|-------------------11----11------11-----10-----|
|-----------------------------------------------|
|-----------------------------------------------|
|-----------------------------------------------|


  S S S S S S S S a S T T S S S S S S
|---------------0----------------------|
|---7p0---6p0-----4s5-------------5h6h=|
|-9-----8-----7-------8p7p5---7-7------|
|---------------------------7----------|
|--------------------------------------|
|--------------------------------------|


  D
  S S S S S S S S S S S S S S S S   a S S S S S S S S S S S S S S S S
|---------------------------------|-----------------------------------|
|-7p5-------5---------------------|-----------------------------------|
|-----7p6-7---7p5---7---5---------|-------------------------2p0-2p0---|
|-----------------7---7---5-----5-|---------------------2h4-----------|
|---------------------------7-7---|-6s5-5p3-0-5-0-0h3h4-------------4-|
|---------------------------------|-----------------------------------|


  A
  S S S S S S S S S S S S S S S S
|---------------------------------|
|---------------------------------|
|-2p0---4p0---5p0---6p0---6p0---7p|
|---------------------------------|
|-----5-----6-----7-----7-----8---|
|---------------------------------|


  S S S S  S S S S  S  S  S  S  S     +S   S  S
|---------------------------10------------10-10--|
|------------------------10----13b15-(13)--------|
|-0---8p0----9p0-0-10h11-------------------------|
|------------------------------------------------|
|---9-----10-------------------------------------|
|------------------------------------------------|


  E
   S     +S   S  S  S  S  S  S  S  S  S       S  E      E
|-12----(12)---------------------------------12-12-----12----|
|-12b14r(12)-10-10-12----10-------12h15b15.5----13b14--13b14-|
|---------------11----11----11s13---------------------(12)---|
|------------------------------------------------------------|
|------------------------------------------------------------|
|------------------------------------------------------------|


  D
   |---3----|
   S  S  a  S  S  a  S  S  a  S  S  S  S  S  S  S S  S  S S
|-------------------------------------------------------------|
|-------------------------------------------------------------|
|-14-12----14-14----12-12-------------------------------------|
|-------14-------14-------14s12p10----12----10----9-----7-----|
|----------------------------------12----12----12---11\---7h==|
|-------------------------------------------------------------|


  A                                                  E
  S S S  S S S  S S S S S S S S S S   S S S S S S E  E  Q   S S
|-----------------------------------|-------------------0-------|
|-----------------------------------|-------------------0---0-0-|
|----------9p0----8p0---7p0---5h6---|-------------------1---1-1-|
|---7-9s10-----10-----9-----7-----7-|-5-------5---------2-------|
|-9---------------------------------|---7-6-7---7-7\------------|
|-----------------------------------|----------------0-(0)------|


  A                                 D
   E  S S S S S S S S S S S S S S     E  S S  S  S S  S  S S  S  S S  S  S S
|-----------5p0---------5p0-------|-------------10p0------------10p0---------|
|-(0)-5p0---------5p0---------5p0-|-----10p0------------10p0------------10p0-|
|-/6------6-----6-----6-----6-----|-/11------11------11------11------11------|
|-/7------------------------------|-/12--------------------------------------|
|--0------------------------------|------------------------------------------|
|---------------------------------|------------------------------------------|


  E
   S  S  S S  S  S S  S  S S  S  S  a S  S S S
|---------------12p0---------------------------|
|-------12p0------------12p0----13----0-13---0-|
|-11s13------13------13------13-13-13---12-0---|
|-12s14----------------------------------------|
|----------------------------------------------|
|----------------------------------------------|


  A
            |---3----|
   e  E     S  S  a  S  S  a  S  S  S  S  S  S  S  S  S
|-12-12--------------------------------------------------|
|-13-13b14-----------------------------------------------|
|----------14-12----12-14----14-12-----------------------|
|----------------14-------14-------14-10h11--------------|
|-------------------------------------------12-10-----0--|
|-------------------------------------------------12\----|


  A
  S S S S S S  S S  S  S  S  S  S  S  S  S
|----------------9-12s15p12----------12-15s|
|-------------10------------14----14-------|
|---------6s9------------------12----------|
|-------7----------------------------------|
|-0h4h7------------------------------------|
|------------------------------------------|


  D
   S  S  S  S  S  S  S  S  S  S  S  S S  S S  S
|-17p14-------------12-15s14p10------------8-12--|
|-------15-------13-------------12------10-------|
|----------14s12-------------------11s9----------|
|------------------------------------------------|
|------------------------------------------------|
|------------------------------------------------|


  E
  S  S S  S S  S S  S S  S S  S S  S  S  S
|----------------9-12p9-10p9-10p9----------|
|-----------9h12------------------12p10----|
|------9h12-----------------------------11-|
|-9h12-------------------------------------|
|------------------------------------------|
|------------------------------------------|


  A
                                   ~~~~~~~~
   |------6-------|
   S  S  S  S  S  S  S  E     +S   Q   +E. S
|-------------------12------------------------|
|-12-13-12-10----10----12b14r(12)-10--(10)----|
|-------------12------------------------------|
|---------------------------------------------|
|------------------------------------------x--|
|---------------------------------------------|


  F#m                              B
                                                   ~~~~~~~~~~
  E E    +e   e E    +e  a +e  e   E    +e   E +e  Q     +S  +S  +S     S
|--------------------------------|-----------------------------------------|
|---5----(5)--5-5----(5)-5-(5)---|-7----(7)--7-(7)-7-----(7)-(7)-(7)-/(10)-|
|---4b6==(4)r-4-4b6==(4)-4r(4)-2-|-7b9==(7)r-6-(6)-6b8===(6)-(6)r(6)s==(9)-|
|--------------------------------|-----------------------------------------|
|-x------------------------------|-----------------------------------------|
|--------------------------------|-----------------------------------------|


  D
  E  E      +S    S E  E     S  a  +S   +e  e
|---------------------------------------------|
|---10-----(10)--10---10-------10-(10)-(10)---|
|----9b11===(9)r--9----9b11=====9r=(9)--(9)-7-|
|---------------------------------------------|
|---------------------------------------------|
|---------------------------------------------|


  A               E
   E S  S  +e   e E S  S  +e   e
|--------------------------------|
|-10---10-(10)-10-9---10-(10)-12-|
|--6----7--(7)--9-9---11-(11)-13-|
|--------------------------------|
|--------------------------------|
|--------------------------------|


  F#m
  S  S  S  S  S  S  S  S  a  S  S  S  S  e  E
|---------------------19-18s19p16-------16-14-----|
|------------14-15s17-------------17----17-15b16==|
|---14s13s14-14-16s18----------------19-----------|
|---16s15s16-------------------------19-----------|
|-------------------------------------------------|
|-------------------------------------------------|


  B
   +S    S  S  S  S  S  S  S  S  S  S  S  S  S S  S
|-(14)----------------------------------------------|
|-(15)r---------------------------------------------|
|-------16p14----16----14---------------------------|
|-------14----16----16----16-12h13-12-13------------|
|----------------------------------------14-12------|
|----------------------------------------------0-10-|


  D
  S  S  S  S  S  S  S  S S  S  S S a  S  S  S  S
|---------------------10s9s10-12---9s10-14-10-10-|
|------------10s=9s10-10s9s10-10s9-9s10-10-10-10-|
|---11s10s11-11s10s11----------------------------|
|---12s11s12-------------------------------------|
|------------------------------------------------|
|------------------------------------------------|


  E
   S  S  S S  S  S S a S S S S S S a S S S   S S S S S S S a S S S S S S S E
|-------12p0----10p0-----9p0---7p0-----5p0-|-----7p0---5p0-----4p0---2p0---0--|
|------------------------------------------|-----------------------0-----0-0--|
|-11s13------11------0h9-----7-----0h6-----|-6s7-----6-----0h4-----4-----2----|
|------------------------------------------|----------------------------------|
|------------------------------------------|----------------------------------|
|------------------------------------------|----------------------------------|


  |----6----| |----6----| |----6----| |----6-----|
  S S S S S S S S S S S S S S S S S S S S S S  S S
|--------------------------------------------------|
|--------------------------------------------------|
|-4-2-------4-6-4-------6-7-6-------7-9-7--------9-|
|-----4-2-5-------6-4-7-------9-7-9-------9-7-11---|
|--------------------------------------------------|
|--------------------------------------------------|


                           D.S. al Coda
   |-----6-----|
   S S  S S  S S  E      +S     S   Q   Q
|----------------------------------12-------||
|-----------------------------(12)----------||
|-11-9---------9-11b13==(11)r---------------||
|------11-9-11------------------------------||
|--------------------------------------14\--||
|-------------------------------------------||


                             Outro
  &
  A             E             A
  E S S S S S S E  Q   S S    E S S S e S E S S S e S
|------------------0-------||-------------------------|
|------------------0-------||-------------------------|
|---5s6---4--------x-------||---5s6---4-----5s6---4---|
|---4s5---4---2----2---x-x-||---4s5---5-0---4s5---5-0-|
|-0-----0---0--------------||-0-----0-----0-----0-----|
|---------------0-(0)------||-------------------------|


  E S S S e S S S S S S      +S   E   E S S S e S E S S S e S
|-----------------------------------|-------------------------|
|-----------------------------------|-------------------------|
|---5s6---4-----------------------2-|---5s6---4-----5s6---4---|
|---4s5---5-----0-----------------2-|---4s5---5-0---4s5---5-0-|
|-0-----0---0-0---3p0-3b3.5==(3)r-0-|-0-----0-----0-----0-----|
|-----------------------------------|-------------------------|


  E S S S S S S S    S S S S +S  E   E S S S e S E S S S e S
|----------------------------------|-------------------------|
|----------------------------------|-------------------------|
|---5s6-x-x----------0---0---------|---5s6---4-----5s6---4---|
|---4s5-----0-0-4b5====4---4r(4)-2-|---4s5---5-0---4s5---5-0-|
|-0--------------------------------|-0-----0-----0-----0-----|
|----------------------------------|-------------------------|


  E S S S e S S S S      +S   E e   E S S S e S E S S S S e
|---------------------------------|-------------------------|
|---------------------------------|-------------------------|
|---5s6---4-------------------2-2-|---5s6---4-----5s6---4-4-|
|---4s5---5-----0-------------2---|---4s5---5-0---4s5---4-4-|
|-0-----0---0-0---3b3.5==(3)r-0---|-0-----0-----0-----0-----|
|---------------------------------|-------------------------|


  |-3-|     |-3-| |-3-|     |-3-| |-3-|       |-3-| |-3-|
  S S S S S S S S S S S S S S S S S S S S S   S S S S S S S S S S  Q   Q
|-3p2p0---0---------------------------------|-----------------------------*|
|-------3---3p1---3p1-----1-----------------|-----------------------------*|
|---------------2-----2p0---2p0---2p0-----0-|----------------------2------*|
|-------------------------------2-----2p0---|-2-----0--------------2------*|
|-------------------------------------------|---5s3---3p0---0------0------*|
|-------------------------------------------|-------------0---3s5-(0)-----*|



Duration Legend
---------------
W - whole; H - half; Q - quarter; E - 8th; S - 16th; T - 32nd; X - 64th; a - acciaccatura
+ - note tied to previous; . - note dotted; .. - note double dotted
Uncapitalized letters represent notes that are staccato (1/2 duration)
Irregular groupings are notated above the duration line
Duration letters will always appear directly above the note/fret number it represents the
duration for.  Duration letters with no fret number below them represent rests.  Multi-
bar rests are notated in the form Wxn, where n is the number of bars to rest for.  Low
melody durations appear below the staff

Tablature Legend
----------------
 h   - hammer-on
 p   - pull-off
 b   - bend
 pb  - pre-bend
 r   - bend release (if no number after the r, then release immediately)
 /\  - slide into or out of (from/to "nowhere")
 s   - legato slide
 S   - shift slide
 - natural harmonic
[n]  - artificial harmonic
n(n) - tapped harmonic
 ~   - vibrato
 tr  - trill
 T   - tap
 TP  - trem. picking
 PM  - palm muting
\n/  - tremolo bar dip; n = amount to dip
 \n  - tremolo bar down
 n/  - tremolo bar up
/n\  - tremolo bar inverted dip
 =   - hold bend; also acts as connecting device for hammers/pulls
 <> - volume swell (louder/softer)
 x   - on rhythm slash represents muted slash
 o   - on rhythm slash represents single note slash

Misc Legend
-----------
 |  - bar
||  - double bar
||o - repeat start
o|| - repeat end
*|  - double bar (ending)
 :  - bar (freetime)
 $  - Segno
 &  - Coda
Tempo markers -  = BPM(8/16=s8/s16), where s8 = swing 8ths, s16 = swing 16ths
            
Hard to play? Try these video lessons and learn fast. | Correct




comments powered by Disqus
↑ Back to top | Tablatures and chords are parodies/interpretations of the original songs. You may use it for private study, scholarship, research or language learning purposes only