>
 >
Deliver Us

Deliver Us Guitar Tabs

Andy Timmons - Deliver Us chords, tabs, tablatures, lyrics

Guitar lessons | Add/correct | Request | Top 50 tabs Artists:  A B C D E F G H I J K L M N O P Q R S T U V W X Y Z 0-9

Deliver Us Guitar Tabs – Andy Timmons

CD, Sheet music, Poster

Do you like Deliver Us? Share with your friends now
Tabs

DELIVER US
As recorded by Andy Timmons
(From the 2006 Album RESOLUTION)

        

Music by Andy Timmons

Gtr I (E A D G B E) - 'Andy Timmons'

  Q=140
 4/4
  Gtr I
                       ~~~
  Q  E E a Q  a E E   +H.      +E   E
|-------------------|-----------------|
|----3--------------|-----------------|
|------2-2s3--5s7-5-|-(5)------(5)/---|
|-0-----------------|---------------0-|
|-------------------|-----------------|
|-------------------|-----------------|


  Q  E E a Q  a E E   +E  E   +Q   S S  S  +E.  E
|-------------------|-----------------------------|
|----3--------------|-----7b8r(7)--7-8-10-(10)/---|
|------2-2s3--5s7-5-|-(5)-------------------------|
|-0-----------------|---------------------------0-|
|-------------------|-----------------------------|
|-------------------|-----------------------------|


                       ~~~
  Q  E E a Q  a E E   +H.      +E   E
|-------------------|-----------------|
|----3--------------|-----------------|
|------2-2s3--5s7-5-|-(5)------(5)/---|
|-0-----------------|---------------0-|
|-------------------|-----------------|
|-------------------|-----------------|


  Q  E E a Q  a E E   +E  E   +Q   S S  S  +E.  E
|-------------------|------------------------------|
|----3--------------|-----7b8r(7)--7-8-10-(10)/----|
|------2-2s3--5s7-5-|-(5)--------------------------|
|-0-----------------|---------------------------0--|
|-------------------|------------------------------|
|-------------------|------------------------------|


                                   ~~~~~~~
  Q  E E a Q  a E E   +E  E E a  E Q  +E  E
|-------------------|-----------------------|
|----3--------------|-----------------------|
|------2-2s3--5s7-5-|-(5)-------------------|
|-0-----------------|---------------------0-|
|-------------------|-----------------------|
|-------------------|-----2s3-3s10s8--(8)---|


                                  PM------------|
  Q  E E a Q  a E E   +E   Q.     S S S S S S S S
|-------------------|-----------------------------|
|----3--------------|-----[7]b8-------------------|
|------2-2s3--5s7-5-|-(5)---------8-7-8-7-5-------|
|-0-----------------|-----------------------7-5p0-|
|-------------------|-----------------------------|
|-------------------|-----------------------------|


  Q  E E a Q  a E E
|-------------------|
|----3--------------|
|------2-2s3--3s7-5-|
|-0-----------------|
|-------------------|
|-------------------|


      T        T        T         T
  +E  E       +Q       +E        +Q       E   Q  E E a Q  a E E
|-------------------------------------------|-------------------|
|-------------------------------------------|----3--------------|
|-(5)-5(17)b7r(5(17))--(5(17))b7r(5(17))----|------2-2s3--5s7-5-|
|-----------------------------------------0-|-0-----------------|
|-------------------------------------------|-------------------|
|-------------------------------------------|-------------------|


  +E  E   +Q   S S  S  +E  S  S S
|---------------------------------|
|-----7b8r(7)--7-8-10-(10)-8h10---|
|-(5)-----------------------------|
|---------------------------------|
|---------------------------------|
|---------------------------------|


               ~~                            ~~~
   a  Q   +E   Q.   S S  S S    a  Q   +E    Q.   E  S  S
|----------------------------|-----------------------------|
|-10s11--(11)\--------8h10---|-10s11--(11)\---------11h13--|
|----------------------------|-----------------------------|
|----------------------------|-----------------------------|
|----------------------------|-----------------------------|
|--------------3-------------|--------------/6-------------|


   ~~
   Q   +E   Q.   E S S   a  Q   +E   Q.   S S  S S
|----------------------|---------------------------|
|-10--(10)\-3------6h8-|-8s10--(10)\-1------8h10---|
|-----------2----------|-------------2-------------|
|-----------0----------|-------------3-------------|
|-----------0----------|---------------------------|
|----------------------|---------------------------|


               ~~                            ~~~
   a  Q   +E   Q.   S S  S S    a  Q   +E    Q.   E  S  S
|----------------------------|----------------------------|
|-10s11--(11)\--------8h10---|-10s11--(11)\---------11h13-|
|----------------------------|----------------------------|
|----------------------------|----------------------------|
|----------------------------|----------------------------|
|--------------3-------------|--------------/6------------|


   Q   +E   Q.   E S S   a  Q   +E   Q.   E  S  S
|----------------------|--------------------------|
|-10--(10)\-3------6h8-|-8s10--(10)\-1------10h11-|
|-----------2----------|-------------2------------|
|-----------0----------|-------------3------------|
|-----------0----------|--------------------------|
|----------------------|--------------------------|


  ~       ~~                      ~~~
  Q  +E   Q.   E S S   a Q  +E    Q.   E S  S
|--------------------|------------------------|
|-8--(8)\--------4h6-|-6s8--(8)\---------8h10-|
|---------8----------|-----------/5-----------|
|---------8----------|-----------/5-----------|
|---------6----------|-----------/3-----------|
|---------6----------|------------------------|


  ~~~~~~~~~~~~~~~~~                                             ~~~
  Q   Q  Q  Q    Q   Q      Q      +Q      Q  E E a Q  a E E   +H.      +E   E
|--------------|-------------------------|-------------------|-----------------|
|-7------------|-------------------------|----3--------------|-----------------|
|--------------|-5--[7]b9--[7]b9r=([7])--|------2-2s3--5s7-5-|-(5)------(5)/---|
|--------4--7--|-------------------------|-0-----------------|---------------0-|
|----/5--------|-------------------------|-------------------|-----------------|
|--------------|-------------------------|-------------------|-----------------|


                                  |-3-|
  Q  E E a Q  a E E   +E   Q.     S S S S S S S S S
|-------------------|-------------------------------|
|----3--------------|-----[7]b8---4h7p4-------------|
|------2-2s3--5s7-5-|-(5)---------------7-5---------|
|-0-----------------|-----------------------7-5s4p0-|
|-------------------|-------------------------------|
|-------------------|-------------------------------|


                          T         T          T
  Q  E E a Q  a E E   +E  Q        +Q         +Q       E
|-------------------|------------------------------------|
|----3--------------|------------------------------------|
|------2-2s3--5s7-5-|-(5)-5(17)b7--(5(17))b9r=(5(17))----|
|-0-----------------|----------------------------------0-|
|-------------------|------------------------------------|
|-------------------|------------------------------------|


  Q  E E a Q  a E E   +E  E   +Q   S S  S  +E  S  S S
|-------------------|---------------------------------|
|----3--------------|-----7b8r(7)--7-8-10-(10)-8h10---|
|------2-2s3--5s7-5-|-(5)-----------------------------|
|-0-----------------|---------------------------------|
|-------------------|---------------------------------|
|-------------------|---------------------------------|


               ~~                            ~~~
   a  Q   +E   Q.   S S  S S    a  Q   +E    Q.   E  S  S
|----------------------------|------------------------------|
|-10s11--(11)\--------8h10---|-10s11--(11)\---------11h13---|
|----------------------------|------------------------------|
|----------------------------|------------------------------|
|----------------------------|------------------------------|
|--------------3-------------|--------------/6--------------|


   ~~
   Q   +E   Q.   E S S   a  Q   +E   Q.   S S  S S
|----------------------|---------------------------|
|-10--(10)\-3------6h8-|-8s10--(10)\-1------8h10---|
|-----------2----------|-------------2-------------|
|-----------0----------|-------------3-------------|
|-----------0----------|---------------------------|
|----------------------|---------------------------|


               ~~                            ~~~
   a  Q   +E   Q.   S S  S S    a  Q   +E    Q.   E  S  S
|----------------------------|----------------------------|
|-10s11--(11)\--------8h10---|-10s11--(11)\---------11h13-|
|----------------------------|----------------------------|
|----------------------------|----------------------------|
|----------------------------|----------------------------|
|--------------3-------------|--------------/6------------|


   ~~
   Q   +E   Q.   E S S   a  Q   +E   Q.   E  S  S
|----------------------|--------------------------|
|-10--(10)\-3------6h8-|-8s10--(10)\-1------10h11-|
|-----------2----------|-------------2------------|
|-----------0----------|-------------3------------|
|-----------0----------|--------------------------|
|----------------------|--------------------------|


  ~       ~~                      ~~~
  Q  +E   Q.   E S S   a Q  +E    Q.   E S  S
|--------------------|------------------------|
|-8--(8)\--------4h6-|-6s8--(8)\---------8h10-|
|---------8----------|-----------/5-----------|
|---------8----------|-----------/5-----------|
|---------6----------|-----------/3-----------|
|---------6----------|------------------------|


  ~~~~~~~~~~~~~~~~~                          PM  ~      PM    PM    ~      PM
  Q   Q  Q  Q    Q   Q      Q      +Q      E E E Q  E E E   E E E a Q  E E E
|--------------|-------------------------|----------------|-------------------|
|-7------------|-------------------------|-3---3-4--4-3---|-3---3-4s6--6-3----|
|--------------|-5--[7]b9--[7]b9r=([7])--|-3---3-3--3-3---|-3---3-3s5--5-3----|
|--------4--7--|-------------------------|---5----------5-|---5------------5--|
|----/5--------|-------------------------|----------------|-------------------|
|--------------|-------------------------|----------------|-------------------|


    PM  ~      PM    PM                 PM|
  E E E Q  E E E   E E S S Q   S  S S S S S
|----------------|--------------------------|
|-3---3-4--4-3---|-3------------------------|
|-3---3-3--3-3---|-3---5s7s5--[5]s7s5p3-----|
|---5----------5-|---5-xsxsx------------5-3-|
|----------------|-----3s5s3----------------|
|----------------|--------------------------|


    PM  ~      PM    PM    ~      PM
  E E E Q  E E E   E E E a Q  E E E
|----------------|-------------------|
|-3---3-4--4-3---|-3---3-4s6--6-3----|
|-3---3-3--3-3---|-3---3-3s5--5-3----|
|---5----------5-|---5------------5--|
|----------------|-------------------|
|----------------|-------------------|


    PM  ~      PM    PM           ~~~~~~~~     ~                ~
  E E E Q  E E E   E E S S Q  E E E   +Q   E E Q  E E   E E a E Q  E E E
|----------------|------------------|-----------------|------------------|
|-3---3-4--4-3---|-3----------------|-----------------|------------------|
|-3---3-3--3-3---|-3---5s7s5--------|-----------------|----------------3-|
|---5----------5-|---5-xsxsx--------|-----------------|------------3h5---|
|----------------|-----3s5s3------1-|-(1)------1------|-1h3-3s5-3--------|
|----------------|------------1h3---|------1h3----1h3-|------------------|


           ~
  +Q   E E Q  E E   E   +E  E   +Q   Q    E
|-----------------|------------------------------|
|-----------------|-6b8r(6)----------3\--10pb11==|
|-(3)------3--5p3-|---------5b7r(5)--------------|
|------3-5--------|------------------------------|
|-----------------|------------------------------|
|-----------------|------------------------------|


                                ~~~
   +H      H         E     E E +Q   Q   E
|------------------|----------------------|
|-(10)r----8b10----|-8pb10r==6-(6)--8\--x-|
|------------------|-------7------------x-|
|------------------|----------------------|
|------------------|----------------------|
|------------------|----------------------|


  E    E E  E     E E  E      E   E  E      E E  E     E S  S  S  S
|-------------------------------|-----------------------------15----|
|--------x----------x-----------|-x-----------x----------x-15----15-|
|-5b7rp3-x-10b12rp7-x-14b15rp12-|-x-15b17rp12-x-17b19r15-x----------|
|-------------------------------|-----------------------------------|
|-------------------------------|-----------------------------------|
|-------------------------------|-----------------------------------|


   ~~~~~
   E.    S  S  S  S  S  S  S  S  S  S  S  S     S    S  S  S  S  S  S  S  S  S  S  S  S S S  E
|-------15----------------------------------------|-----------------------------------------------|
|-18b20----18p15----16p15----------------------15-|-18-17-16-20-----------------------------------|
|----------------17-------------------15-17b19----|-------------19p17-20p17-19-15h17--------15b19-|
|-------------------------------15h17-------------|----------------------------------17---x-------|
|-------------------------17h18-------------------|-------------------------------------x---------|
|-------------------------------------------------|-----------------------------------------------|


              |--3--|       |--3--|      |-3--|
   +H         S  S  S  +S   S  S  S  +S  S  S S
|-----------------------------------------------|
|-----------------------------------------------|
|-(15)b19----12h15p12-(12)-10h12p10-(10)-8h10p8-|
|-----------------------------------------------|
|-----------------------------------------------|
|-----------------------------------------------|


                                     ~              ~~
      |-3-|     |-3-|
  +S  S S S +S  S S S +E  E E E  E   Q   E E  a  E  Q   S  S
|----------------------------------|--------------------------|
|----------------------------------|----------------------11--|
|-(8)-7h8p7-(7)-5h7p5-(5)-3s5-5s10-|-7-------------10--12-----|
|----------------------------------|-------8-10s12------------|
|----------------------------------|----10--------------------|
|----------------------------------|--------------------------|


   |---3----|  |---3----|  |---3----|
   E     E  E  E  E  a  E  E  a  E  E S S  E
|-------------------------13-------15-----18b22==|
|-13b15-11-13----11-13s15----15s18------x--------|
|-------------12----------------------x----------|
|------------------------------------------------|
|------------------------------------------------|
|------------------------------------------------|


   +Q    +E.  S  S  S  Q      S  S    S  S  S  S  S  S  S  S  S  S  S  S  Q
|-(18)r=(18)-15--------------15----|-------------------------------------------|
|---------------15-15-18b20-----18p|=15----------------------------------------|
|----------------------------------|----17p15----15p14-------------------------|
|----------------------------------|----------17-------17p15-15----------------|
|----------------------------------|----------------------------17S15-13-------|
|----------------------------------|-------------------------------------13\---|


     ~
   E H    E  E  E       +E   +E     E  q   Q    E
|--------------------|----------------------------|
|----8----8h10-10b11-|-(10)-(10)b11r8-10--11\-----|
|--------------------|----------------------------|
|-/8-----------------|----------------------------|
|--------------------|----------------------------|
|--------------------|-------------------------15-|


                |-3-| |-3-|            |-3-|
   +E   E E  E  E E E E E E   S  S S S E E E  H
|---------0-(0)-------------|-6h10p6---0--------------|
|---------0-(0)-----------8-|--------8----------------|
|---------------------7h9---|--------------9----------|
|-----------------7h8-------|------------8---[7]b8----|
|-----------/7h10-----------|-------------------------|
|-(15)\-0-------------------|-------------------------|


                  |-3--|
  S S E E  Q.     S  S S S S    S  S  S  S  Q       Q       +Q
|----------------------------|-----------------------------------|
|-------8--------------------|-------11h13-11b13r=[13]b15--(13)--|
|---------10b12r==8h10p8S7S8h|=10S12-----------------------------|
|-5h7------------------------|-----------------------------------|
|-----6----------------------|-----------------------------------|
|----------------------------|-----------------------------------|


                        ~~
   |--------7--------|
   S  S  S  S  S  S  S  Q    Q      S S  E       +Q    S S  Q      +Q       E
|---------------------------------------------|--------------------------/(15)---|
|-11-15-11-11---------------------------15b17-|-(15)\------18b20--(18)\----------|
|-------------14-------12--[14]b15----x-------|----------x-----------------------|
|----------------14-14--------------x---------|--------x-------------------------|
|---------------------------------------------|----------------------------------|
|---------------------------------------------|----------------------------------|


   S  S  S  S  S  S  S  S  S  S  S  S  S  S  S  S
|-15-16p15----------------------15-16p15----------|
|----------18p14----------14h18----------18p14h18-|
|----------------17-15h17-------------------------|
|-------------------------------------------------|
|-------------------------------------------------|
|-------------------------------------------------|


   S  S  S  S  S  S  S  S  S  S  S  S  S  S  S  S
|-15-16p15----------------------15-16p15----------|
|----------18p14----------14h18----------18p14h18-|
|----------------17-15h17-------------------------|
|-------------------------------------------------|
|-------------------------------------------------|
|-------------------------------------------------|


   S  S  S  S  S  S  S  S  S  S  S  S  S  S  S  S
|-15-16h20p16p15----15h16h20p16p15----15h16h20p16p|
|----------------18----------------18-------------|
|-------------------------------------------------|
|-------------------------------------------------|
|-------------------------------------------------|
|-------------------------------------------------|


                           |------6-------|  |------6-------|
   S  S  S  S  S  S  S  S  S  S  S  S  S  S  S  S  S  S  S  S
|-15----15h16h20p16p15----15-18-16-15-18-16-15-20-18-16-20-18\-|
|----18----------------18--------------------------------------|
|--------------------------------------------------------------|
|--------------------------------------------------------------|
|--------------------------------------------------------------|
|--------------------------------------------------------------|


                  ~~~                    ~~
    E     +E   E  Q.    E  E    E  E     Q   Q     E  E
|-/20b22-(20)-18-20----18-20-|-20-20b22-18-----------18\-|
|----------------------------|--------------20\----------|
|----------------------------|-------------------/19-----|
|----------------------------|---------------------------|
|----------------------------|---------------------------|
|----------------------------|---------------------------|


                                                               ~
    S  E    S  E    S  S   S  a  S  S  S  S  S  S  S    Q.     H    +E
|-----17\-----15\-----13\----------------------------|---------------------|
|-------------------------13-15s13-11----13----11----|-10b11r==8----(8)/---|
|-/17-----/15-----/14-----------------12-------------|---------------------|
|-------------------------------------------12----12-|---------------------|
|----------------------------------------------------|---------------------|
|----------------------------------------------------|---------------------|


                       ~~~
  Q  E E a Q  a E E   +H.      +E   E
|-------------------|-----------------|
|----3--------------|-----------------|
|------2-2s3--5s7-5-|-(5)------(5)/---|
|-0-----------------|---------------0-|
|-------------------|-----------------|
|-------------------|-----------------|


  Q  E E a Q  a E E   +E  E   +Q   S S  S  +E.  E
|-------------------|------------------------------|
|----3--------------|-----7b8r(7)--7-8-10-(10)/----|
|------2-2s3--5s7-5-|-(5)--------------------------|
|-0-----------------|---------------------------0--|
|-------------------|------------------------------|
|-------------------|------------------------------|


                          T         T          T
  Q  E E a Q  a E E   +E  Q        +Q         +Q       E
|-------------------|------------------------------------|
|----3--------------|------------------------------------|
|------2-2s3--5s7-5-|-(5)-5(17)b7--(5(17))b9r=(5(17))----|
|-0-----------------|----------------------------------0-|
|-------------------|------------------------------------|
|-------------------|------------------------------------|


                                       ~~~~~
  Q  E E a Q  a E E   S S  Q       E   Q      +E       E
|-------------------|-------------------------------------|
|----3--------------|-----13b15===13r-13b15--(13)b15rp11--|
|------2-2s3--5s7-5-|---x---------------------------------|
|-0-----------------|-x-----------------------------------|
|-------------------|-------------------------------------|
|-------------------|-------------------------------------|


   Q      +E   Q      +Q        E    Q      +E   E      +Q   E  E
|---------------------------------|-------------------------------|
|-13b15--(13)-13b15--(13)b15rp=11-|-15b18--(15)-15pb18r(15)-------|
|---------------------------------|-------------------------------|
|---------------------------------|-------------------------------|
|---------------------------------|--------------------------8s12-|
|---------------------------------|-------------------------------|


    ~~~~                                           ~~~~~~~~
    |-3-|  |--3--|  |--3--|  |--3--|
   +Q   E  E  E  E  E  E  E  S  S  S  E    Q      +E      Q   E  +E       E
|---------------------------13h15p13----|-17b18--(17)b18r15------------------|
|---------------------13-15----------13-|--------------------18-(18)b20==18r-|
|---------------12h14-------------------|------------------------------------|
|---------12h15-------------------------|------------------------------------|
|-(12)-15-------------------------------|------------------------------------|
|---------------------------------------|------------------------------------|


   +E        E  Q   E  S  S  S  S  S  S
|---------------------------------------|
|-(18)pb20r\-------------------------18-|
|------------------------------14h17----|
|------------------------15h17----------|
|-----------10s13--15s17----------------|
|---------------------------------------|


   ~~        ~~
   Q   S  S  Q   S  S  S  S  S T T    H         S  S  S  S  S  S  S  S
|----------------------------------|------------------------------------|
|-15--15----15--------------15---x-|-16b18\-------------------15-18p15--|
|--------17--------14h15-17----x---|-----------------14h15h17-----------|
|---------------17-----------------|-----------15h17--------------------|
|----------------------------------|------------------------------------|
|----------------------------------|------------------------------------|


   ~~~~~
   Q      +E.  S  S  S  S  S  S  E S    S  S S  S S  S S S  S S  S S  S S  S S
|-------------15---------------------|-----------------------------8-----------|
|-18b20--(18)----18p16p15----16p15---|------------------------8h11---11p8------|
|-------------------------17---------|-----------------7h8h10-------------10p8-|
|------------------------------------|------------8h10-------------------------|
|------------------------------------|-------8h10------------------------------|
|----------------------------------8h|=10h11-----------------------------------|


            ~~~~~~~~~~~
                         |------6-------|
    Q      +E   E  +Q    S  S  S  S  S  S
|------------------------------------------|
|-/13b15r=(13)----------10-10-10-10-10-10S=|
|--------------11-(11)---------------------|
|------------------------------------------|
|------------------------------------------|
|------------------------------------------|


   |------6-------|   |------6-------|        |------6-------|
   S  S  S  S  S  S   S  S  S  S  S  S  S  S  S  S  S  S  S  S  +E
|--------------------------------------------------------------------|
|-11-11-11-11-11-11-/13-13-13-13-13-13-15h16p15p13-16p15p13----------|
|-----------------------------------------------------------15-(15)\-|
|--------------------------------------------------------------------|
|--------------------------------------------------------------------|
|--------------------------------------------------------------------|


   |--3--|     |--3--|     |--3--|     |--3--|     |--3--|
   S  S  S  S  S  S  S  S  S  S  S  S  S  S  S  S  S  S  S  E
|-15----------15----------15----------15----------15------------|
|----15p13p11----15p13p11----15p13p11----15p13p11----15p13p11---|
|---------------------------------------------------------------|
|---------------------------------------------------------------|
|---------------------------------------------------------------|
|---------------------------------------------------------------|


   |--3--|     |--3--|     |--3--|     |--3--|     |--3--|
   S  S  S  S  S  S  S  S  S  S  S  S  S  S  S  S  S  S  S  E
|-15----------15----------15----------15----------15-----------|
|----15p13p11----15p13p11----15p13p11----15p13p11----15p13p11\-|
|--------------------------------------------------------------|
|--------------------------------------------------------------|
|--------------------------------------------------------------|
|--------------------------------------------------------------|


   |-3--|    |-3--|    |-3--|    |-3--|    |-3--|
   S  S S S  S  S S S  S  S S S  S  S S S  S  S S E
|-10--------10--------10--------10--------10---------|
|----10p8p6----10p8p6----10p8p6----10p8p6----10p8p6/-|
|----------------------------------------------------|
|----------------------------------------------------|
|----------------------------------------------------|
|----------------------------------------------------|


   |--3--|     |--3--|     |--3--|     |--3--|     |--3--|
   S  S  S  S  S  S  S  S  S  S  S  S  S  S  S  S  S  S  S  E
|-13----------13----------13----------13----------13-----------|
|----13p11p10----13p11p10----13p11p10----13p11p10----13p11p10/-|
|--------------------------------------------------------------|
|--------------------------------------------------------------|
|--------------------------------------------------------------|
|--------------------------------------------------------------|


   |--3--|     |--3--|     |--3--|     |--3--|     |--3--|
   S  S  S  S  S  S  S  S  S  S  S  S  S  S  S  S  S  S  S  E
|-15----------15----------15----------15----------15----------|
|----15p13p11----15p13p11----15p13p11----15p13p11----15p13p11-|
|-------------------------------------------------------------|
|-------------------------------------------------------------|
|-------------------------------------------------------------|
|-------------------------------------------------------------|


   |--3--|     |--3--|     |--3--|     |--3--|     |--3--|
   S  S  S  S  S  S  S  S  S  S  S  S  S  S  S  S  S  S  S  E
|-15----------15----------15----------15----------15-----------|
|----15p13p11----15p13p11----15p13p11----15p13p11----15p13p11\-|
|--------------------------------------------------------------|
|--------------------------------------------------------------|
|--------------------------------------------------------------|
|--------------------------------------------------------------|


   |-3--|    |-3--|    |-3--|    |-3--|    |-3--|
   S  S S S  S  S S S  S  S S S  S  S S S  S  S S E
|-10--------10--------10--------10--------10---------|
|----10p8p6----10p8p6----10p8p6----10p8p6----10p8p6/-|
|----------------------------------------------------|
|----------------------------------------------------|
|----------------------------------------------------|
|----------------------------------------------------|


   |--3--|     |--3--|     |--3--|
   S  S  S  S  S  S  S  S  S  S  S  S T T  Q       +E
|-13----------13----------13--------------13b15===(13)r\-|
|----13p11p10----13p11p10----13p11p10---x----------------|
|-------------------------------------x------------------|
|--------------------------------------------------------|
|--------------------------------------------------------|
|--------------------------------------------------------|


         PM---|         PM---|         PM------|
   S  S  S  S  S  S  S  S  S  S  S  S  S  S  S  S
|---------------------------------------------------|
|---------------------------------------------------|
|-12p10----------12p10----------12p10----------12p==|
|-------12-10----------12-10----------12-10---------|
|-------------13-------------13-------------13------|
|---------------------------------------------------|


      PM---|         PM|            PM|
   S  S  S  S  S  S  S  S  S  S  S  S  S  S  S  S
|-------------------------------------------------|
|-------------------------------------------------|
|-10----------12p10----------12p10----------------|
|----12-10----------12-10----------12-10----------|
|----------13-------------13-------------------12p|
|----------------------------------------10h13----|


   S  S  S  S  S  S  S  S  S  S  S  S  S  S  S  S
|----------------------------------------------13p=|
|----------------------------------13p10-----------|
|----------------------12p10-------------12p10-----|
|----------12p10-------------12p10-----------------|
|-10-------------12p10-----------------------------|
|----13p10-----------------------------------------|


                                            ~      ~~~~~~~~
   S  S  S   S   E     Q       +E     Q     Q  +E  Q  Q  E
|-10------------15b17-15b18===(15)r\------|----------------|
|----13p10s(13)---------------------------|----------------|
|-----------------------------------------|----------------|
|-----------------------------------------|----------------|
|-----------------------------------------|----------------|
|------------------------------------15\--|-3--(3)S5S=6S=8-|


       ~~                 ~~               ~~
  +E   Q   Q   E  E  E    Q   +E   Q   Q   E
|----------------------|---------------------|
|----------------------|---------------------|
|----------------------|---------------------|
|----------------------|------------------10-|
|-------------10-10h12-|--------------12-----|
|-(8)S10--13-----------|-10--(10)-13---------|


                                 ~~~~~~~      ~~~~~~~
   +E   E  E  E  Q      Q        Q  +E   E    Q  +E   E
|-----------------------------|----------------------------|
|-----------------------------|-/8--(8)-------8--(8)-------|
|------10-10----12b15--12b14--|---------10b12--------10b12-|
|-(10)-------10---------------|----------------------------|
|-----------------------------|----------------------------|
|-----------------------------|----------------------------|


                                ~~~~~~~      ~
                     |--3---|
  E  E  E  Q.       +E   E  E   Q  +E   E    Q  E  E
|-----------------------------|--------------------------|
|-8h10s11-11b13====(11)r-8----|-8--(8)-------8--8--------|
|--------------------------10-|--------10b12------10b12--|
|-----------------------------|--------------------------|
|-----------------------------|--------------------------|
|-----------------------------|--------------------------|


                                ~~~~~~~
                     |--3---|
  E  E  E  Q.       +E   E  E   Q  +E   E    Q   S S  E
|-----------------------------|-----------------------------|
|-8h10s11-13b15====(13)r-8----|-8--(8)-------8/------18b20==|
|--------------------------10-|--------10b12-------x--------|
|-----------------------------|------------------x----------|
|-----------------------------|-----------------------------|
|-----------------------------|-----------------------------|


   E  +E   E  E  E  E S S  E        E  +E   E  E  E  E S S  E
|--------------------------------|--------------------------------|
|-18r(18)-18p16-16s15-----16b18==|=16r(16)-16p15-15s13-----15b16==|
|-----------------------x--------|-----------------------x--------|
|---------------------x----------|---------------------x----------|
|--------------------------------|--------------------------------|
|--------------------------------|--------------------------------|


   E  +E   E  E  E  E.  E.       +H       H
|-----------------------------|----------------|
|-15r(15)-15p13-13s11--13b15==|=(13)r\----3----|
|-----------------------------|-----------2----|
|-----------------------------|-----------0----|
|-----------------------------|-----------0----|
|-----------------------------|----------------|


                          T      T
  +W           +H     +E  Q      E
|------------|--------------------------|
|-(3)--------|-(3)----(3)---------------|
|-(2)--------|-(2)----(2)--------7(19)--|
|-(0)--------|-(0)----(0)-7(19)---------|
|-(0)--------|-(0)----(0)---------------|
|------------|--------------------------|


   T      T      T         T          T
  +E      Q      Q        +Q         +E
|--------------------------------------------|
|--------------------------------------------|
|-(7(19))------------------------------------|
|---------7(19)--7(19)b8r=(7(19))b8r=(7(19))-|
|--------------------------------------------|
|--------------------------------------------|


              >
   ~~~~~~~    T            T
  +H         +H           +W
|-----------------------|------------*|
|-----------------------|------------*|
|-----------------------|------------*|
|-(7(19))----(7(19))----|-(7(19))----*|
|-----------------------|------------*|
|-----------------------|------------*|



Duration Legend
---------------
W - whole; H - half; Q - quarter; E - 8th; S - 16th; T - 32nd; X - 64th; a - acciaccatura
+ - note tied to previous; . - note dotted; .. - note double dotted
Uncapitalized letters represent notes that are staccato (1/2 duration)
Irregular groupings are notated above the duration line
Duration letters will always appear directly above the note/fret number it represents the
duration for.  Duration letters with no fret number below them represent rests.  Multi-
bar rests are notated in the form Wxn, where n is the number of bars to rest for.  Low
melody durations appear below the staff

Tablature Legend
----------------
 h   - hammer-on
 p   - pull-off
 b   - bend
 pb  - pre-bend
 r   - bend release (if no number after the r, then release immediately)
 /\  - slide into or out of (from/to "nowhere")
 s   - legato slide
 S   - shift slide
 - natural harmonic
[n]  - artificial harmonic
n(n) - tapped harmonic
 ~   - vibrato
 tr  - trill
 T   - tap
 TP  - trem. picking
 PM  - palm muting
\n/  - tremolo bar dip; n = amount to dip
 \n  - tremolo bar down
 n/  - tremolo bar up
/n\  - tremolo bar inverted dip
 =   - hold bend; also acts as connecting device for hammers/pulls
 <> - volume swell (louder/softer)
 x   - on rhythm slash represents muted slash
 o   - on rhythm slash represents single note slash

Misc Legend
-----------
 |  - bar
||  - double bar
||o - repeat start
o|| - repeat end
*|  - double bar (ending)
 :  - bar (freetime)
 $  - Segno
 &  - Coda
Tempo markers -  = BPM(8/16=s8/s16), where s8 = swing 8ths, s16 = swing 16ths





Comments


Popular Andy Timmons tabs & chords
The Spoken And The Unspoken Bass Tabs
Turn Away Bass Tabs
Electric Gypsy Tabs
Falling Down Intro Tabs
Farmer Sez Tabs
Groove Or Die Tabs
Resolution Tabs
Strawberry Fields Forever Intro Tabs
Super 70s Tabs
The Spoken And The Unspoken Tabs


Song lyrics



↑ Back to top | Tablatures and chords are parodies/interpretations of the original songs. You may use it for private study, scholarship, research or language learning purposes only
© 2014 AZChords.com Contact us | Privacy policy | DMCA | Add/correct tabs | Request tabs | Top 50 tabs