>
 >
When She Cries

When She Cries Guitar Tabs

Andy Mckee - When She Cries chords, tabs, tablatures, lyrics

Guitar lessons | Add/correct | Request | Top 50 tabs Artists:  A B C D E F G H I J K L M N O P Q R S T U V W X Y Z 0-9

When She Cries Guitar Tabs – Andy Mckee

CD, Sheet music, Poster

Do you like When She Cries? Share with your friends now
Tabs
This is one of my Favorite song of Andy McKee. Its a beautiful song to play. 
Also, its my first time writing a Tab.  Alright the tuning of this song is a CGDgBc and enjoy.  

c|----4---------------0-0-----------------------------------------------|
B|-----------3-3----------0---------------------------------------------|
g|---------0-----0----------0-----0------0h2--2---0---0---2---2---0---0-|
D|-------5---------0----------2-2---2-------0-------0-------0-------0---|
G|----------------------2-------2-----------------------0-------0-------|
C|----0----------------------------------5------5-----------------------|

c|------------2p0-------------0------------0------------------|
B|----------------0-0-----1-1---------------------------------|
g|----------------------0--------0---0h2\4---4--0--0----------|
D|--0h2-2--2----------2-----------------------------------0h2-|
G|--0---------------2-------2----------------0-----0---0--0---|
C|--0------0-------------------------5------------------------|

c|------------------------------0-----------------0----------0-----|
B|--------------------------3-3---0-----------1-1------------------|
g|-------0----------------0---------0---0---0--------0-0h3\4---4p0-|
D|---------2\3/2p0------0-----------------2------------------------|
G|-----0----------4\5/4-----------------2-------2--------------0---|
C|--0-----------------4-------4------------------------5-----------|

c|------------2p0-7-7---0------------------0----------------|
B|--------------------3-----0------------1--1---------------|
g|------------------------7---0-2--2---2--------0-0-----0-0-|
D|--0-2-2--2-------------------------3--------3-------0-----|
G|--0---------------2--------------3----------------5-------|
C|--0------0--------------------------------------5---------|
                                         
c|-----------2p0--7-7---0------------------0--7-7-------0--7--7-------0-|
B|--------------------3-----0------------0------------0-------------5---|
g|------------------------7---0-2--2---2------------2--------------0----|
D|--0-2-2--2-------------------------2------------2--------------3------|
G|--0---------------2--------------2------------0-----------------------|
C|--0------0--------------------------------------------------5---------|

c|----------------------------0--7-7-------0--7-|
B|------0h1p0---------------0------------0------|
g|--7-7--------0---2--2---2------------2--------|
D|---------------2------2------------2----------|
G|----------0---------2------------0------------|
C|----5-----------------------------------------|

c|---7-------0-------0--0---------0------------0------------0-------|
B|---------5---------5--5--------------5------------5-----------5---|
g|-------0------7-7--0--0------------7---0-0------7---0-0-----7---0-|
D|-----3-------------3--3-------------------------------------------|
G|------------------------------------------------------------------|
C|---5------------5-----5---X-0---2--------X-2-2----2---X-2-2-------|

c|--0-----------0------------0---------2------------2------------2---------|
B|------5------------5-----------5----------5------------5-------------5---|
g|----7---0-0------7---0-0-----7---0------7---0-0------7---0-0-------7---0-|
D|-------------------------------------------------------------------------|
G|-------------------------------------------------------------------------|
C|--5-------X-5-5----5---X-5-5---------0--------X-0-0----0---X-0-0---------|

c|--2-----------2-----------2---------0------------0------------0--------|
B|------5-----------5-----------5----------5------------5------------5---|
g|----7---0-0-----7---0-0-----7---0------7---0-0------7---0-0------7---0-|
D|-----------------------------------------------------------------------|
G|-----------------------------------------------------------------------|
C|--0-------X-0-0---0---X-0-0---------2--------X-2-2----2---X-2-2--------|

c|--0-----------0------------0---------2------------2-----------2--------2---------0---------|
B|------5------------5------------5---------5-----------5-----------5----------5-----0-------|
g|----7---0-0------7---0-0------7---0-----7---0-0-----7---0-0-----7---0-----7---0------2---0-|
D|---------------------------------------------------------------------------------------7---|
G|-------------------------------------------------------------------------------------------|
C|--5-------X-5-5----5---X-5-5---------0--------X-0-0---0---X-0-0--------0-------------------|

c|--2--------0----------------|
B|------5------0--------------|
g|----7---0------2----0-------|
D|-----------------7----0h2h5-|
G|----------------------------|
C|--0-------------------------|



c|---0----0----0----0----0----0------0----0----0----0----0----0----0---0---0---0----0----0--|
B|----0----0----0----0----0----0------0----0----0----0----0----0----0---0---0---0----0----0-|
g|----------0---------0---------------------0---------0------------------0-------0----------|
D|------5--------5---------5----------5---------5---------5----------2-------2---------2----|
G|--2-----------------------------2------------------------------2--------------------------|
C|------------------------------------------------------------------------------------------|

c|----0----0----0-----0----0----0------0----0----0----0----0----0--|
B|-----0----0----0-----0----0----0------0----0----0----0----0----0-|
g|-----------0----------0---------------------0---------0----------|
D|------2---------2----------2-----------5---------5---------5-----|
G|--2-------------------------------2------------------------------|
C|-----------------------------------------------------------------|

c|-----0----0----0----0----0----0-------0----0----0----0----0----0--|
B|------0----0----0----0----0----0-------0----0----0----0----0----0-|
g|------------0---------0----------------------0---------0----------|
D|-------5---------5---------5------------2---------2---------2-----|
G|--2--------------------------------2------------------------------|
C|------------------------------------------------------------------|

c|-----0----0----0----0----0----0-------0----0----0----0----0----0--|
B|------0----0----0----0----0----0-------0----0----0----0----0----0-|
g|------------0--------------------------------4--------------------|
D|-------2---------2----0-----------------5--------------5----------|
G|--2------------------------0-------2------------------------0-----|
C|--------------------------------------------------4---------------|

c|-----0----0----0----0----0----0----0-------0----0----0----0----0----0--|
B|------0----0----0----0----0----0----0-------0----0----0----0----0----0-|
g|------------4-------------------------------------0--------------------|
D|-------5--------------5----5-----------------2--------------2----------|
G|--2-----------------------------0-------2------------------------0-----|
C|-----------------4-------------------------------------4---------------|

c|-----0----0----0----0----0----0------0----0----0----0----0----0--|
B|------0----0----0----0----0----0------0----0----0----0----0----0-|
g|------------0-------------------------------4--------------------|
D|-------2--------------2----------------5--------------5----------|
G|--2------------------------0------2------------------------0-----|
C|-----------------4-------------------------------4---------------|

c|-----0----0----0----0----0----0------0----0----0----0----0----0--|
B|------0----0----0----0----0----0------0----0----0----0----0----0-|
g|------------4-------------------------------0--------------------|
D|-------5--------------5----------------2--------------2----------|
G|--2------------------------0------2------------------------0-----|
C|-----------------4-------------------------------4---------------|

c|-----0----0----0----0----0----0------0----0----0----0--|
B|------0----0----0----0----0----0------5----5----5----5-|
g|------------0-------------------------------0----------|
D|-------2--------------2----------------5---------5-----|
G|--2-------------------------------2--------------------|
C|-----------------4---------0---------------------------|

c|-----0----0----0----0------0----0----0----0--|
B|------3----3----3----3------0----0----0----0-|
g|------------0---------------------0----------|
D|-------5---------5-----------5---------5-----|
G|---------------------------------------------|
C|--4---------------------5--------------------|

c|-----0----0----0----0----0----0-----0----0----0----0----0----0--|
B|------0----0----0----0----0----0-----0----0----0----0----0----0-|
g|------------0---------0--------------------0--------------------|
D|-------2---------0---------0----------0--------------0----------|
G|--0------------------------------5--------------4---------0-----|
C|----------------------------------------------------------------|

c|-----0----0----0----0----0----0------0----0----0----0----0----0--|
B|------0----0----0----0----0----0------0----0----0----0----0----0-|
g|------------4-------------------------------4--------------------|
D|-------5--------------5----------------5--------------5----------|
G|--2------------------------0------2------------------------0-----|
C|-----------------4-------------------------------4---------------|

c|-----0----0----0----0----0----0------0----0----0----0----0----0--|
B|------0----0----0----0----0----0------0----0----0----0----0----0-|
g|------------0-------------------------------0--------------------|
D|-------2--------------2----------------2--------------2----------|
G|--2------------------------0------2------------------------0-----|
C|-----------------4-------------------------------4---------------|

c|-----0----0----0----0----0----0------0----0----0----0----0----0--|
B|------0----0----0----0----0----0------0----0----0----0----0----0-|
g|------------4-------------------------------4--------------------|
D|-------5--------------5----------------5--------------5----------|
G|--2------------------------0------2------------------------0-----|
C|-----------------4-------------------------------4---------------|

c|-----0----0----0----0----0----0------0----0----0----0----0----0--|
B|------0----0----0----0----0----0------0----0----0----0----0----0-|
g|------------0-------------------------------0--------------------|
D|-------2--------------2----------------2--------------2----------|
G|--2------------------------0------2------------------------------|
C|-----------------4-------------------------------4---------0-----|

c|-----0----0----0----0----0----0------0----0----0----0----0----0--|
B|------5----5----5----5----5----4------3----3----3----3----3----3-|
g|------------0---------0---------------------0---------0----------|
D|-------5---------5---------5-----------5---------5---------5-----|
G|-----------------------------------------------------------------|
C|--2-------------------------------4------------------------------|

c|-----0----0----0----0----0----0------0----0----0----0----0----0--|
B|------0----0----0----0----0----0------0----0----0----0----0----0-|
g|------------0---------0---------------------0---------0----------|
D|-------5---------5---------5-----------2---------0---------0-----|
G|----------------------------------0------------------------------|
C|--5--------------------------------------------------------------|

c|-----0----0----0-----|
B|------0----0----0--0-|
g|------------0--------|
D|-------0-------------|
G|--5----------------4-|
C|---------------------|

c|--4-----------0-0--------------------------------------------------2p0---------------0---|
B|--------3-3-------0----------------------------------------------------0-0-------1-1-----|
g|------0----0-------0----0---0h2---2---0---0---2--2---0--0----------------------0-------0-|
D|----5-------0-------2-2--2------0-------0------0------0----0h2-2-2----------2-----2------|
G|----------------2-----2---------------------0------0-------0-------------2---------------|
C|--0-------------------------5-------5----------------------0-----0-----------------------|

c|--------0-------|
B|----------------|
g|--0h2\4---4p0-0-|
D|----------------|
G|----------0---0-|
C|--5-------------|

| /  slide up
| \  slide down
| h  hammer-on
| p  pull-off
| ~  vibrato
| +  harmonic
| x  Mute note





Comments


Popular Andy Mckee tabs & chords
7-14 Tabs
Art Of Motion Tabs
Dreamcatcher Tabs
Drifting Tabs
Ebon Coast Tabs
For My Father Intro Tabs
Heathers Song Intro 1 Tabs
Into The Ocean 1 Tabs
Ouray Tabs
Rylynn Tabs


Song lyrics



↑ Back to top | Tablatures and chords are parodies/interpretations of the original songs. You may use it for private study, scholarship, research or language learning purposes only
© 2014 AZChords.com Contact us | Privacy policy | DMCA | Add/correct tabs | Request tabs | Top 50 tabs