» » »

Andra And The Backbone, Main Hati Tabs (ver.1)

Artists:  A B C D E F G H I J K L M N O P Q R S T U V W X Y Z # 

Main Hati Tabs (ver.1)

Andra And The Backbone Tabs
 Rating:
4.2/5 (5 votes)
Main Hati lessons Tabs too difficult? Try these video lessons and learn fast
                
Tuning : standart (EADGBe)

Chord” yg dipakai :
    B    E   F#m   G#m   A
e|----------------------------|
B|----------------------------|
G|---4---1--------------------|
D|---4---2----4------6---7----|
A|---2---2----4------6---7----|
E|------------2------4---5----|

Intro ( ulang aja berkali – kali )
e|--------------------------|
B|----5-4-------5-4---------|
G|--4----------4------------|
D|-4----------4-------------|
A|--------------------------|
E|--------------------------|

Verse ( lo cobain sendiri ya )

    B		E
e|--------------------------|
B|--------------------------|
G|--4-----------1-----------|
D|--4-----------2-----------|
A|--2-----------2-----------|
E|--------------------------|

.... Tak Pernah Sebelumnya....

	G#m		E
e|--------------------------|
B|--------------------------|
G|---------------------1----|
D|-----6---------------2----|
A|-----6---------------2----|
E|-----4--------------------|

.... Tak Penah Kuduga .......

	G#m	E   F#
e|--------------------------|
B|--------------------------|
G|-------------1------------|
D|------6------2----4-------|
A|------6------2----4-------|
E|------4-----------2-------|

Reff

    B      F#      G#m      E    F#m
e|----------------------------------------|
B|----------------------------------------|
G|--4-----------------------1-------------|
D|--4-8x---4--------6-------2-4x---4------|
A|--2------4-8x-----6-8x----2------4-4x---|
E|---------2--------4--------------2------|

Dah...sisanya..tinggal nyontek di atas ya...


Coda / Outro : Sama Kaya intro

*..Untuk Solonya gw blm bisa nemuin..kalo ad yang bisa..please kirim tab. Nya ke email 
            
Submit corrections

comments powered by Disqus
↑ Back to top | Andra And The Backbone Tabs for Main Hati. Lyrics for acoustic guitar and electric guitar. Tablatures and chords are parodies/interpretations of the original songs. You may use it for private study, scholarship, research or language learning purposes only