» » »

Anathema, We The Gods Bass tabs (ver.1)

Artists:  A B C D E F G H I J K L M N O P Q R S T U V W X Y Z # 

We The Gods Bass tabs (ver.1)

Anathema Tabs
Rating:
0/5 (0 votes)
Hard to play? Try these video lessons and learn fast.
                G-|--------------------------------------------------------------------4---|
D-|----4-5----4-5---5------4-------4-------4-5----4-5----5------4------4---|
A-|-3------3------3----2-2----2-2--2--2-3------3------3----2-2----2-2--2-2-|
E-|------------------------------------------------------------------------|

G-|-------------------------------|
D-|------4------4-5----4-5----5-4-| 

A-|-2--2---2-3------3------3----2-| 
E-|-------------------------------|


G-|---------------------|
D-|-----5-------5-------| 
A-|-3-3---3-3-3---3-2-2-| 
E-|---------------------|


G-|------------| G-|--------------| G-|------------|
D-|-4------4---| D-|--------------| D-|------------|
A-|---2--2---2-| A-|---2--0h2-2-2-| A-|---2----2-2-|
E-|------------| E-|-2------------| E-|-2----2-----|


G-|------------------------------------7---------------------------|
D-|-------7--------------5---------------7-------------5-------5---|
A-|-3/5-5----5---5-5-3-3---3-3---3-3/5-----5---5-5-3-3---3-3-3---3-|
E-|------------5---------------3-------------5---------------------|


G-|----------------------------------|
D-|-4h5-2----------------------------| 
A-|-------3-2--2-222-222-222-222-222-| 
E-|----------------------------------|


G-|----------------------------------------------------------|
D-|-----2-0---0h2-----4/5-4--5-2-----2-0---0h2-----4/5-4-5-0-|
A-|---2-----2-------2--------------2-----2-------2-----------|
E-|-0-------------0--------------0-------------0-------------|


G-|----------------------------------------------------------|
D-|----------------------------------------------------------|
A-|---------------3--------------5---------------------------|
E-|-0------------------------------------------0-------------|


G-|-7-|
D-|-7-| 
A-|-5-| 


G-|-----7-----7-------|
D-|-5h7---5h7---5h7-7-|
A-|-------------------|
E-|-------------------|


G-|-----------|
D-|-4h5-2-----|
A-|-------3-2-|
E-|-----------|
            

comments powered by Disqus
↑ Back to top | Anathema Bass for We The Gods. Lyrics for acoustic guitar and electric guitar. Tablatures and chords are parodies/interpretations of the original songs. You may use it for private study, scholarship, research or language learning purposes only