>
 >
Unchained Tales Of The Unexpected

Unchained Tales Of The Unexpected Guitar Tabs

Anathema - Unchained Tales Of The Unexpected chords, tabs, tablatures, lyrics

Guitar lessons | Add/correct | Request | Top 50 tabs Artists:  A B C D E F G H I J K L M N O P Q R S T U V W X Y Z 0-9

Unchained Tales Of The Unexpected Guitar Tabs – Anathema

CD, Sheet music, Poster

Do you like Unchained Tales Of The Unexpected? Share with your friends now
Tabs
================================================================================
                                A N A T H E M A

                                       -

     U N C H A I N E D   ( T A L E S   O F   T H E  U N E X P E C T E D )
================================================================================


                                   Hindsight
                         (c)  Peaceville/Kscope (2008)


                                Standard Tuning
                                  E A D G B E

                                  Tempo = 74 BPM
                              Time Signature = 4/4



                          -----------------------------

                                 PADDY MCMULLAN

                                   Version 1.0
                                1st October 2009
                             -----------------------


                                  ============
                                  Song  Notes:
                                  ============


    Finger-pick throughout, and allow the notes to ring wherever possible.



================================================================================
Rest for 11 bars
================================================================================

================================================================================
Section 1: Guitars 1 & 2 [Acoustic Fingerstyle] Play 5 times
================================================================================


||----------------------------------|----------------------------------|
||----------------------------------|----------------------------------|
||--------0-------0-------0-------0-|--------0-------0-------0-------0-|
||----3-------3-------3-------3-----|----3-------3-------3-------3-----|
||------3-------3-------3-------3---|------3-------3-------3-------3---|
||--1-------1-------1-------1-------|--1-------1-------1-------1-------|


|----------------------------------|----------------------------------| |
|----------------------------------|------------------------0---------| |
|--------0-------0-------0-------1-|--------1-------1---------------0-|*|
|----2-------2-------2-------2-----|----2-------2-------2-------2-----|*|
|------3-------3-------3-------3---|------3-------3-------3-------3---| |
|--3-------3-------3-------3-------|--3-------3-------3-------3-------| |



================================================================================
Section 2: Guitars 1 & 2 (Play once)
================================================================================


||----------------------------------|----------------------------------|
||----------------------------------|----------------------------------|
||--------0-------0-------0-------0-|--------0-------0-------0-------0-|
||----3-------3-------3-------3-----|----6-------6-------6-------6-----|
||------3-------3-------3-------3---|------6-------6-------6-------6---|
||--1-------1-------1-------1-------|--4-------4-------4-------4-------|


|----------------------------------|----------------------------------||
|----------------------------------|----------------------------------||
|--------0-------0-------0-------0-|--------0-------0-------0-------0-||
|----6-------6-------6-------6-----|----6-------6-------6-------6-----||
|------8-------8-------8-------8---|------7-------7-------7-------7---||
|--8-------8-------8-------8-------|--8-------8-------8-------8-------||



================================================================================
Play Section 1 three times
================================================================================

================================================================================
Play Section 2 once
================================================================================

================================================================================
Play the last two bars of Section 2 sixteen times until fade
================================================================================

================================================================================
End
================================================================================


Tab summary:        Section 1 x 5
                    Section 2 x 1
                    Section 1 x 3
                    Section 2 x 1
                    Section 2 x 16 (last two bars only)

                    END





Comments


Popular Anathema tabs & chords
Fragile Dreams Bass Tabs
Under A Veil Of Black Lace Bass Tabs
We, The Gods 1 Bass Tabs
Angelica Chords
Electricity Chords
666 Nailed To The Cross Tabs
A Natural Disaster Tabs
Everything Tabs
Lovelorn Rhapsody Tabs
Silent Enigma Instrumental Tabs


Song lyrics



↑ Back to top | Tablatures and chords are parodies/interpretations of the original songs. You may use it for private study, scholarship, research or language learning purposes only
© 2014 AZChords.com Contact us | Privacy policy | DMCA | Add/correct tabs | Request tabs | Top 50 tabs