>
 >
Temporary Peace

Temporary Peace Bass Tabs

Anathema - Temporary Peace chords, tabs, tablatures, lyrics

Guitar lessons | Add/correct | Request | Top 50 tabs Artists:  A B C D E F G H I J K L M N O P Q R S T U V W X Y Z 0-9

Temporary Peace Bass Tabs – Anathema

CD, Sheet music, Poster

Do you like Temporary Peace? Share with your friends now
Bass TabsTabs
================================================================================
                                A N A T H E M A

                                       -

                          T E M P O R A R Y   P E A C E
================================================================================


                               A FINE DAY TO EXIT
                            (c)  Koch Records (2001)


                                 Standard Tuning
                                     E A D G

                                  Tempo = 84 BPM
                              Time Signature = 4/4



                          -----------------------------

                                 PADDY MCMULLAN

                                   Version 1.0
                                 27th July 2009
                             -----------------------

                             Tablature Symbols Used:


 p         -  Pull-Off
 h         -  Hammer-On
 (/)       -  Legato Slide (Blank space indicates length of slide)
 \         -  Slide Down to/Down From (Blank space indicates length of slide)
 /         -  Slide Up To/Up From (Blank space indicates length of slide)
 ( )       -  Ghost Note/Tied Note/Implied Note
 REST      -  Rest and sustain rest for duration of blank space
 |_3_|     -  Triplet Notes
 |___[1]   -  Ending 1/2/3 etc.



================================================================================
Intro: Play x 1
================================================================================


||-------||
||-------||
||--3----||
||-------||



Hold this note for 27 bars, striking it only once



================================================================================
Riff 1: Play x 12
================================================================================


||----------------------|----------------------| |
||---------------5------|---------------3------|*|
||--3--3----3-----------|--3--3----3-----------|*|
||----------------------|----------------------| |



For the second repeat only, replace the second bar with the following:


|---------------------|
|---------------------|
|--3--3------3--------|
|---------------------|



================================================================================
Section 2: Play x 1
================================================================================


  1                          2
||--------------------------|-----------------------------|
||--------------------------|-----------------------------|
||--------------------------|-----------------------------|
||--4---4-4--4------4--4-6/ |--8---8-8--8----8--8--(8/11)-|

 3                                  4
|----------------------------------|--------------------------------|
|----------------------------------|--------------------------------|
|--10---10-10--10----10--10--10-10-|--11----11--11----11---11-11-11-|
|----------------------------------|--------------------------------|

 5                              6
|------------------------------|----------------------------|
|------------------------------|----------------------------|
|------------------------------|----------------------------|
|--8---8-8-8-8----8--8--(8/10)-|--11---11-11--11------11----|

 7                                    8
|------------------------------------|--------------------------------|
|------------------------------------|--------------------------------|
|--10---10-10-10-10----10--10-10--10-|--11---11-11--11----11---11-10--|
|------------------------------------|--------------------------------|

 9                                 10
|---------------------------------|----------------------------|
|---------------------------------|----------------------------|
|---------------------------------|----------------------------|
|--11---11-11--11----11--11-11 \  |--8---8-8--8------8--(8/11)-|

 11                                 12
|----------------------------------|--------------------------------|
|----------------------------------|--------------------------------|
|--10---10-10--10----10--10--10-10-|--11----11--11----11---11-11-11-|
|----------------------------------|--------------------------------|

 13                             14
|------------------------------|----------------------------|
|------------------------------|----------------------------|
|------------------------------|----------------------------|
|--8---8-8-8-8----8--8--(8/10)-|--11---11-11--11------11----|

 15                           16
|----------------------------|--------------------------------|
|----------------------------|--------------------------------|
|--10----10--10----10--10----|--11---11-11--11----11---11-10--|
|----------------------------|--------------------------------|

 17                           18
|----------------------------|-----------------------|
|----------------------------|-----------------------|
|----------------------------|-----------------------|
|--11---11-11--11------11----|--8---8-8--8------8----|

 19                                 20
|----------------------------------|--------------------------------|
|----------------------------------|--------------------------------|
|--10---10-10--10----10--10--10-10-|--11----11--11----11---11-11-11-|
|----------------------------------|--------------------------------|

 21                             22
|------------------------------|----------------------------|
|------------------------------|----------------------------|
|------------------------------|----------------------------|
|--8---8-8-8-8----8--8--(8/10)-|--11---11-11--11------11----|

 23
|----------------------------||
|----------------------------||
|--10---10-10--10------10----||
|----------------------------||



================================================================================
Outro: Play x 1
================================================================================


  1                            2
||----------------------------|---------------------------------------|
||----------------------------|----------------------10---------------|
||--11---11-11--11------11----|--11---11-11--11---11-------(10/8)-----|
||----------------------------|-------------------------11--------11--|

 3                            4
|----------------------------|-----------------------------------------|
|----------------------------|-----------------------------------------|
|--11---11-11--11------11----|--11---11-11--11---11-11h 13-(13\10)-10--|
|----------------------------|-----------------------------------------|

 5                            6
|----------------------------|----------------------------------|
|----------------------------|----------------------------------|
|--11---11-11--11------11----|--11---11-11--11------10--10------|
|----------------------------|-------------------11---------11--|

 7                            8
|----------------------------|---------------------------------|
|----------------------------|--------------------------(8/10)-|
|--11---11-11--11------11----|--11---11-11--11------11---------|
|----------------------------|---------------------------------|

 9                    10                  11
|--------------------|-------------------|-------------------|
|--10----------------|--(10)-------------|--(10)-------------|
|--------------------|-------------------|-------------------|
|--8-----------------|--(8)--------------|--(8)--------------|

 12                     13                  14
|----------------------|-------------------|-------------------|
|----------------------|-------------------|-------------------|
|----------------------|-------------------|-------------------|
|--8------8------8  \  |--4----------------|--4----------------|

 15                16                17                18
|-----------------|-----------------|-----------------|-----------------||
|-----------------|-----------------|-----------------|-----------------||
|-----------------|-----------------|-----------------|-----------------||
|--4--------------|--4--------------|--8--------------|--(8)------------||



================================================================================
End
================================================================================


Tab summary:        Intro x 1
                    Riff 1 x 12
                    Section 2 x 1
                    Outro x 1

                    END





Comments


Popular Anathema tabs & chords
Fragile Dreams Bass Tabs
The Silent Enigma Bass Tabs
Angels Walk Among Us Tabs
Deep 1 Tabs
Forgotten Hopes Tabs
Lightning Song Tabs
Sleepless Tabs
They (Will Always) Die Tabs
Under A Veil Of Black Lace Tabs
Lost Control Ukulele


Song lyrics



↑ Back to top | Tablatures and chords are parodies/interpretations of the original songs. You may use it for private study, scholarship, research or language learning purposes only
© 2014 AZChords.com Contact us | Privacy policy | DMCA | Add/correct tabs | Request tabs | Top 50 tabs