» » »

Anathema, Suicide Veil Tabs (ver.1)

Artists:  A B C D E F G H I J K L M N O P Q R S T U V W X Y Z # 

Suicide Veil Tabs (ver.1)

Anathema Tabs
Rating:
0/5 (0 votes)
Hard to play? Try these video lessons and learn fast.
                ANATHEMA - Suicide Veil
                           From the Album Eternity
                          Copyright 1996, Peaceville
                           Version 2.0 - june 2000


For Questions, Comments, Newest Version, or Corrections contact me.

Check Out Death Warp, With More Transcriptions On It:

  key: h - hammer on
       p - pull off
       s - slide
       t - tremolo
     ... - echo
      () - silently
       X - repeat aX times

 ANATHEMA - suicide veil

 Tune down - DADGBE

 0:10 - 0:48  play 1 time
|-----------------------------------|-----------------------------------|
|-----------------------------------|-----------------------------------|
|-----------------------------------|--------1--------------------------|
|--------6-------0------------------|----------------0------------------|
|----4-------4-------4---0---2---0--|----4-------4-------4---0---2---0--|
|--4---4-------4-------4-------2----|--2---2-------2-------2-------2----|

|-----------------------------------|-----------------------------------|
|-----------------------------------|-----------------------------------|
|-----------------------------------|-----------------------------------|
|--------6-------0------------------|-------6-------0-------------------|
|----4-------4-------4---0---2---0--|----4-------4-------4---0---2---0--|
|--4---4-------4-------4-------2----|--4---4-------4-------4-------2----|

|-----------------------------------|-----------------------------------|
|-----------------------------------|-----------------------------------|
|-----------------------------------|----------------2-------2-1--------|
|--------6-------0------------------|--------0-----0-------0-----4------|
|----4-------4-------4---0---2---0--|----0-------0-------0--------------|
|--4---4-------4-------4-------2----|--0---0----------------------------|


 0:49 - 1:01  play 1 time             2nd guitar steps in (on the A string)
|--------------------------------------------0-----------0----|
|------------------------------------------2-----------2---3--|
|----------------------------------------2-----------2--------|
|-------------------------------------------------------------|
|------------------------------------4----------(4)-----------|
|--0-2-4---6---4-6-7---4-6-7---6---2-4------------------------|


 1:04 - 1:48  play 1 time
|-----------------------------------|-----------------------------------|
|-----------------------------------|-----------------------------------|
|-----------------------------------|-----------------------------------|
|--------6-------0------------------|--------6-------0------------------|
|----4-------4-------4---0---2---0--|----4-------4-------4---0---2---0--|
|--4---4-------4-------4-------2----|--4---4-------4-------4-------2----|

|-----------------------------------|-----------------------------------|
|-----------------------------------|-----------------------------------|
|--------1--------------------------|--------------------2--------------|
|----------------0------------------|--------6-------0------------------|
|----4-------4-------4---0---2---0--|----4-------4----------------------|
|--2---2-------2-------2-------2----|--4---4-------4--------------------|

|-----------------------------------|-----------------------------------|
|-----------------------------------|-----------------------------------|
|-----------------------------------|-----------------------------------|
|--------6-------0------------------|--------6-------0------------------|
|----4-------4-------4---0---2---0--|----4-------4-------4---0---2---0--|
|--4---4-------4-------4-------2----|--4---4-------4-------4-------2----|

|-----------------------------------| (after this keyboard coming...
|-----------------------------------| no guitars)
|----------------2-------2-1--------|
|--------0-----0-------0-----4------|
|----0-------0-------0--------------|
|--0---0----------------------------|


 2:15 - 2:35  play 1 time
|-------------------------------------------------------------------|
|-------------------------------------------------------------------|
|-------------------------------------------------------------------|
|----4---4---4---0---0---0---6---4---4---4---4---0---0---0---6---4--|
|-------------------------------------------------------------------|
|--4---4---4---4---0---0---0---0---4---4---4---4---0---0---0---0----|

|-------------------------------------------------------------------|
|-------------------------------------------------------------------|
|-------------------------------------------------------------------|
|-------------------------------------------------------------------|
|-------------------------------------------------------------------|
|--4---6---7---6---4---6-7---6-2---4--------------------------------|


 this missing part is distorted and else...
 just later or somebody else do it


 normal tuning - EADGHe

 3:31 - 5:10  play 1 time
|----0---1---0---1-----0---1---0---1---------3-1-3-1p0--------3-1-3-1p0--|
|----------------------------------------0h3--------------0h3------------|
|------------------------------------------------------------------------|
|--2---2---2---2-----2---2---2---2-----2----------------2----------------|
|------------------------------------------------------------------------|
|------------------------------------------------------------------------|

|----0---1---0---1-----0---1---0---1---------3-1-3-1p0--------3-1-3-1p0--|
|----------------------------------------0h3--------------0h3------------|
|------------------------------------------------------------------------|
|--2---2---2---2-----2---2---2---2-----2----------------2----------------|
|------------------------------------------------------------------------|
|------------------------------------------------------------------------|

|--------1-0--------------1-0---------------1-0--------------1-0---------|
|------------3---1------------0---1-------------3---1------------0---1---|
|------2-------2--------2------(2)--------2------(2)-------2------(2)----|
|----2----------------2-----------------2----------------2---------------|
|--0----------------0----------------------------------------------------|
|-------------------------------------0----------------0-----------------|

|--------1-0--------------1-0---------------1-0--------------1-0---------|
|------------3---1------------0---1-------------3---1--------------------|
|------2-------2--------2------(2)--------2------(2)-------2-------------|
|----2----------------2-----------------2----------------2---------------|
|--0----------------0----------------------------------------------------|
|-------------------------------------0----------------0-----------------|

|----0---1---0---1-----0---1---0---1---------3-1-3-1p0--------3-1-3-1p0--|
|----------------------------------------0h3--------------0h3------------|
|------------------------------------------------------------------------|
|--2---2---2---2-----2---2---2---2-----2----------------2----------------|
|------------------------------------------------------------------------|
|------------------------------------------------------------------------|

|----0---1---0---1-----0---1---0---1---------3-1-3-1p0--------3-1-3-1p0--|
|----------------------------------------0h3--------------0h3------------|
|------------------------------------------------------------------------|
|--2---2---2---2-----2---2---2---2-----2----------------2----------------|
|------------------------------------------------------------------------|
|------------------------------------------------------------------------|

|--------1-0--------------1-0---------------1-0--------------1-0---------|
|------------3---1------------0---1-------------3---1------------0---1---|
|------2-------2--------2------(2)--------2------(2)-------2------(2)----|
|----2----------------2-----------------2----------------2---------------|
|--0----------------0----------------------------------------------------|
|-------------------------------------0----------------0-----------------|

|--------1-0--------------1-0---------------1-0--------------1-0---------|
|------------3---1------------0---1-------------3---1------------0---1---|
|------2-------2--------2------(2)--------2------(2)-------2------(2)----|
|----2----------------2-----------------2----------------2---------------|
|--0----------------0----------------------------------------------------|
|-------------------------------------0----------------0-----------------|

|------------------0--------------------0--------------------------------|
|--------------3-------3----------------3--------------------------------|
|----------2---------------2------------2--------------------------------|
|------3-----------------------3--------3--------------------------------|
|---------------------------------------2--------------------------------|
|--0------------------------------------0--------------------------------|



Check Out Death Warp, With More Transcriptions On It:
            

comments powered by Disqus
↑ Back to top | Anathema Tabs for Suicide Veil. Lyrics for acoustic guitar and electric guitar. Tablatures and chords are parodies/interpretations of the original songs. You may use it for private study, scholarship, research or language learning purposes only