» » »

Release Tabs (ver.1)

Artists:  A B C D E F G H I J K L M N O P Q R S T U V W X Y Z # 

Release Tabs (ver.1)

Anathema
Rating:
2/5 (1 vote)

Hard to play? Try these video lessons and learn fast.
                PROPS GO TO: Iven Vergen


Notation:
h Hammer on
p Pull off
/ Slide up
\ Slide down
(x) Bending
------------

List of chords used in the song

E |---|---|---|
B |---|---|---|
G |---|-7-|---|
D |-3-|-7-|-7-|
A |-3-|-5-|-7-|
E |-1-|---|-5-|
    F   D   A

-------------

Acoustic guitar
E |------------|------------|------------|------------|------------|
B |------------|------------|------------|------------|------------|
G |------2-----|------2-----|------2-----|------2-----|------2-----|
D |----------2-|----------2-|----------2-|----------0-|----------0-|
A |--0-0---0---|--0-0---0---|--0-0---0---|--0-0---0---|--0-0---0---|
E |------------|------------|------------|------------|------------|

E |------------|------------|------------|
B |------------|------------|------------|
G |------2-----|------2-----|------4-----|
D |----------3-|----------3-|----------2-|
A |--0-0---0---|--0-0---0---|--0-0---0---|
E |------------|------------|------------|

Electric guitar with distortion

E |----------------------------------------------------------------|
B |-1p3--3-1-0------1-1-0--------0----------------0----------------|
G |-2----2-2---2-2--2-2-2-2-2-2--2p4--4-4-2--2-2--2p4--4-4-2--2-2--|
D |-0----0-0---0-0--3-3-3---3-3--2----2-2-2--2-2--2----2-2-2--2-2--|
A |------------------------------0----0-0-0--0-0--0----0-0-0--0-0--|
E |----------------------------------------------------------------|
    F*               D*            A*

* A second electric guitar with distortion plays the chords

F*        D*       A*

Solo with electric guitar
E |----------------------------------------|
B |----------------------------------------|
G |--14\12-12-12-12\10-10-9-10-9-7-5-4-2-2-|
D |----------------------------------------|
A |----------------------------------------|
E |----------------------------------------|

E |-----------------------------------------------|
B |-----------------------------------------------|
G |--14\12-12-12-12\10-10-9-12-10-9-7-7-7/9-7-7/9-|
D |-----------------------------------------------|
A |-----------------------------------------------|
E |-----------------------------------------------|

E |----------------------------------------|
B |----------------------------------------|
G |--14\12-12-12-12\10-10-9-12-10-9-7-5-4-4|
D |----------------------------------------|
A |----------------------------------------|
E |----------------------------------------|


E |-------------------------------------------------------------------------|
B |-------------------------------------------------------------------------|
G |4/5-2-4/5-2-4/5-2-4/5-2--9--14--14-14---14--14-14---14--14-14---14--14-14|
D |-------------------------------------------------------------------------|
A |-------------------------------------------------------------------------|
E |-------------------------------------------------------------------------|

E |---------------------------------------------------------------------|
B |---------------------------------------------------------------------|
G |-14-12-10-9-12-11-12-9-12-14---14--14-14---14--14-14---14--14-14-...
D |---------------------------------------------------------------------|
A |---------------------------------------------------------------------|
E |---------------------------------------------------------------------|

Electric guitar solo without distortion played over the main riff. (This solo
is adapted to be played with one guitar. In the album is played by two guitar
and bass).

E |----------------------------------------------------------------------|
B |----------------------------------------------------13p15-------------|
G |--14--(15)14--12--10--9---(16)14------5p7----5p7----------14----------|
D |--------------14--12--10---------14--------7-----7-------------3-2p3-2|
A |----------------------------------------------------------------------|
E |----------------------------------------------------------------------|

E |---------------------------------------------------------------------|
B |--5/6\5-------------------13p15--------------------------------------|
G |----------5p7------12p14--------14----2p4-2------14p16-14------------|
D |--2/3\2--------7--------------------2--------14----------------------|
A |---------------------------------------------------------------------|
E |---------------------------------------------------------------------|

E |---------------------------------------------------------------------|
B |---------------------------------------------------------------------|
G |---7//9\7\5-4-5-2-----7//9\7\5-4-5-4/5\4/2---------------------------|
D |---9/10\9\7-5-7-3-----9/10\9\7-5-7-5/7\5\2---------------------------|
A |---------------------------------------------------------------------|
E |---------------------------------------------------------------------|
            
Hard to play? Try these video lessons and learn fast. | Correct




comments powered by Disqus
↑ Back to top | Tablatures and chords are parodies/interpretations of the original songs. You may use it for private study, scholarship, research or language learning purposes only