» » »

One Last Goodbye Tabs (ver.1)

Artists:  A B C D E F G H I J K L M N O P Q R S T U V W X Y Z # 

One Last Goodbye Tabs (ver.1)

Anathema
Rating:
0/5 (0 votes)

Hard to play? Try these video lessons and learn fast.
                --O N E  L A S T  G O O D B Y E--


Riffs
|-3---3---2-0---0---2-0---0---2---|-2-0------------|-2-0---------------------|
|-0-0---0---0-0---0---0-0---0---0-|-0---0--0---0-0-|-0---0-0---0-0-0---------|
|---------------------0-----------|-2------4-2---4-|-2-----4-2---4-3---------|
|---------------------------------|--------0-----4-|-------0-------4---------|
|---------------------------------|--------------2-|-------------4-4---------|
|---------------------------------|----------------|---------------2---------|



|------------------------|---0-0000-0000-|---0-0000-0000-0-0-0000-0000-------|
|----------0-----0-------|---0-0000-0000-|---0-0000-0000-0-0-0000-0000-------|
|------------0-----0-----|---0-0000-0000-|---0-0000-0000-0-0-0000-0000-------|
|-7\4----4-----------4---|-4-5-5555-5555-|-4-5-5555-5555-5-2-2222-2222-------|
|-5\2--2-------2-------2-|-4-5-5555-5555-|-4-5-5555-5555-5-2-2222-2222-------|
|------------------------|-2-3-3333-3333-|-2-3-3333-3333-3-0-0000-0000-------|




|-0-2-2222-2222-2-0-0000-0000-|-0-0-00-0-00-0-00-0-00-2-2-22-2-2-22----------|
|-0-3-3333-3333-3-2-2222-2222-|-0-0-00-0-00-0-00-0-00-3-3-33-3-3-33----------|
|-0-4-4444-4444-4-2-2222-2222-|-0-0-00-0-00-0-00-0-00-4-4-44-4-4-44----------|
|-2-4-4444-4444-4-2-2222-2222-|-5-5-55-5-55-5-55-5-55-4-4-44-4-4-44----------|
|-2-2-2222-2222-2-0-0000-0000-|-5-5-55-5-55-5-55-5-55-2-2-22-2-2-22----------|
|-0---------------------------|-3-3-33-3-33-3-33-3-33------------------------|





|-0-0-00-0-0-00-|-----------------------0--------0---------------------------|
|-2-2-22-2-2-22-|-----------------------0--------0---------------------------|
|-2-2-22-2-2-22-|--2nd time instead of -0--play -0---------------------------|
|-2-2-22-2-2-22-|-----------------------5--------2---------------------------|
|-0-0-00-0-0-00-|-----------------------5--------2----.......----------------|
|---------------|-----------------------3--------0---------------------------|




electronic
|--------------------|------------------|------------|-----------------------|
|--------------------|------------------|------------|-----------------------|
|-----------7-4--7-4-|-----------7-4--2-|-------4--2-|-------7--2------------|
|-4-5--4-5--7-4--7-4-|-4-5--5-2--7-4--2-|-5--5--4--2-|-2--2--7--2------------|
|-4-5--4-5--5-2--5-2-|-4-5--5-2--5-2--0-|-5--5--2--0-|-2--2--5--0------------|
|-2-3--2-3-----------|-2-3--3-0---------|-3--3-------|-0--0------------------|






|----------|
|----------|
|----4--2--|
|-2--4--2--|
|-2--2--0--|
|-0--------|





Solo
|----------------------------------------------------------------------------|
|------------14-15-----------------------------------------------------------|
|-14~~----16-------14--12-11~--12-14-----------------------------------------|
|------------------------------------14~~-\slide down--14bf(16)14~-12--------|
|---------------------------------------------------------------------14-----|
|----------------------------------------------------------------------------|






|----------------------------------------------------------------------------|
|----------------------------------------------------------------------------|
|----------------------------------------------------------------------------|
|-12h14~~-\slide down-----12-14-12----12-14-14bf(16)14-12----12-14bf(16)14~--|
|----------------------14----------14---------------------14-----------------|
|----------------------------------------------------------------------------|





|---------------------------------------------------------17~-15h17p15p14----|
|---------------------------17-------17----17----17----17-----------------15-|
|--------------------14-14~----14-14----14----14----14-----------------------|
|-12-12h1412p11--------------------------------------------------------------|
|---------------12~----------------------------------------------------------|
|----------------------------------------------------------------------------|





|----------------------------------------------------------------------------|
|----------------------------------------------------------------------------|
|-14bf(16)14~~---12-11-----(11bh)12backto11-----12-11------------------------|
|----------------------14~------------------14~-------12~-14p12p11~--11\9~---|
|----------------------------------------------------------------------------|
|----------------------------------------------------------------------------|


Probably there might be any mistakes in the solo and some riffs but this track isn't
that simple to transcribe how you might think first!
Have fun!
            
Hard to play? Try these video lessons and learn fast. | Correct




comments powered by Disqus
↑ Back to top | Tablatures and chords are parodies/interpretations of the original songs. You may use it for private study, scholarship, research or language learning purposes only