» » »

Anathema, Lost Control Bass tabs (ver.1)

Artists:  A B C D E F G H I J K L M N O P Q R S T U V W X Y Z # 

Lost Control Bass tabs (ver.1)

Anathema Tabs
 Rating:
4/5 (4 votes)
Lost Control lessons Tabs too difficult? Try these video lessons and learn fast
                G|----------------------------------------------------|
D|----------------------------------------------------|
A|--0------0------0-3-0----3-2-0--------------3-2-0---| 
E|-------0------0----------------(3)---1-1----------0-|


G|----------------------------------------------------|
D|----------------------------------------------------|
A|--0------0------0-3-0----3-2-0------------------0---| 
E|-------0------0----------------(3)---1-1----3-------|


G|------------------------------------------------|
D|------------------------------------------------|
A|--0------0-3-0------0-3-5------5-7-8----8-7-5-3-| x 8
E|-------0----------0----------0------------------|


G|------------------------------------------------|
D|------------------------------------------------|
A|--0------0-3-0------0-3/8----8-7-5------3-2-0---| 
E|-------0----------0----------------3----------3-|
            
Submit corrections

comments powered by Disqus
↑ Back to top | Anathema Bass for Lost Control. Lyrics for acoustic guitar and electric guitar. Tablatures and chords are parodies/interpretations of the original songs. You may use it for private study, scholarship, research or language learning purposes only