>
 >
Deep 1

Deep 1 Guitar Tabs

Anathema - Deep 1 chords, tabs, tablatures, lyrics

Guitar lessons | Add/correct | Request | Top 50 tabs Artists:  A B C D E F G H I J K L M N O P Q R S T U V W X Y Z 0-9

Deep 1 Guitar Tabs – Anathema

CD, Sheet music, Poster

Do you like Deep 1? Share with your friends now
TabsTabs v2
Anathema - Deep

Well, my first tab...enjoy it :)


0:04  -  0:18

e|---|---------------------------------|---------------------------------|
b|---|---------------------0-----------|---------------------0-----------|
g|---|-----0---------------------------|-----0---------------------------|
d|---|-2-------3---2---2-------3---2---|-2-------3---2---2-------3---2---|
a|--0|---0---0---0---0---0---0---0---0-|---0---0---0---0---0---0---0-----|
E|---|---------------------------------|-------------------------------3-|



e|---------------------------------|---------------------------------|
b|---------------------0-----------|---------------------0-----------|
g|-----0---------------------------|-----0---------------------------|
d|-2-------3---2---2-------3---2---|-2-------3---2---2-------3---2---|
a|---------------------------------|-------------------------------0-|
E|---3---3---3---3---3---3---3---3-|---3---3---3---3---3---3---3-----|


0:19  -  0:31

Feel my heart...

e|---------------------------------|---------------------------------|
b|---------------------0-----------|---------------------0-----------|
g|-----0---------------------------|-----0---------------------------|
d|-2-------3---2---2-------3---2---|-2-------3---2---2-------3---2---|
a|---0---0---0---0---0---0---0---0-|---0---0---0---0---0---0---0-----|
E|---------------------------------|-------------------------------3-|



e|---------------------------------|---------------------------------|
b|---------------------0-----------|--------------------0------------|
g|-----0---------------------------|-----0--------------0------------|
d|-2-------3---2---2-------3---2---|-2-------3---2---2--0------------|
a|---------------------------------|---------------------------------|
E|---3---3---3---3---3---3---3---3-|---3---3---3---3----3------------|


0:32  - 1:00

Guitar 1
e|-----------------------------|----------------------------|
b|-------------------0---------|------------------0---------|
g|-----0-----------------------|----0-----------------------|
d|---------3---2---------3---2-|--------3---2---------3---2-|
a|-000---0---0---000---0---0---|-000--0---0---000---0---0---|
E|-----------------------------|----------------------------|

Guitar 2
e|-------------------------------------------------|
B|-------------------------------------------------|
G|----------------4~----------------------4~-------|
D|----5~-3~-2~-------3~-2~----5~-3~-2~-------3~-2~-|
A|-0-----------0-----------0-----------0-----------|
E|-------------------------------------------------|

Guitar 1
e|-----------------------------|----------------------------|
b|-------------------0---------|------------------0---------|
g|-----0-----------------------|----0-----------------------|
d|---------3---2---------3---2-|--------3---2---------3---2-|
a|-----------------------------|----------------------------|
E|-333---3---3---333---3---3---|-333--3---3---333---3---3---|

Guitar 2
e|-------------------------------------------------|
B|-------------------------------------------------|
G|----------------4~----------------------4~-------|
D|----5~-3~-2~-------3~-2~----5~-3~-2~-------3~-2~-|
A|-------------------------------------------------|
E|-3-----------3-----------3-----------3-----------|


Guitar 1
e|-----------------------------|----------------------------|
b|-------------------0---------|------------------0---------|
g|-----0-----------------------|----0-----------------------|
d|---------3---2---------3---2-|--------3---2---------3---2-|
a|-000---0---0---000---0---0---|-000--0---0---000---0---0---|
E|-----------------------------|----------------------------|

Guitar 2
e|-------------------------------------------------|
B|-------------------------------------------------|
G|----------------4-----------------------4--------|
D|----5--3--2~-------3--2~----5--3--2~-------3--2~-|
A|-0-----------0-----------0-----------0-----------|
E|-------------------------------------------------|

Guitar 1
e|-----------------------------|----------------------------|
b|-------------------0---------|------------------0---------|
g|-----0-----------------------|----0-----------------------|
d|---------3---2---------3---2-|--------3---2---------3-----|
a|-----------------------------|----------------------------|
E|-333---3---3---333---3---3---|-333--3---3---333---3---3---|

Guitar 2
e|-------------------------------------------------|
B|-------------------------------------------------|
G|----------------4-----------------------4--------|
D|----5--3--2~-------3--2~----5--3--2~-------3--2~-|
A|-------------------------------------------------|
E|-3-----------3-----------3-----------3-----------|


1:01  -  1:28

A fettered heart...

e|---|---------------------------------|---------------------------------|
b|---|---------------------0-----------|---------------------0-----------|
g|---|-----0---------------------------|-----0---------------------------|
d|---|-2-------3---2---2-------3---2---|-2-------3---2---2-------3---2---|
a|--0|---0---0---0---0---0---0---0---0-|---0---0---0---0---0---0---0-----|
E|---|---------------------------------|-------------------------------3-|

e|---------------------------------|---------------------------------|
b|---------------------0-----------|---------------------0-----------|
g|-----0---------------------------|-----0---------------------------|
d|-2-------3---2---2-------3---2---|-2-------3---2---2-------3---2---|
a|---------------------------------|-------------------------------0-|
E|---3---3---3---3---3---3---3---3-|---3---3---3---3---3---3---3-----|


e|---------------------------------|---------------------------------|
b|---------------------0-----------|---------------------0-----------|
g|-----0---------------------------|-----0---------------------------|
d|-2-------3---2---2-------3---2---|-2-------3---2---2-------3---2---|
a|---0---0---0---0---0---0---0---0-|---0---0---0---0---0---0---0-----|
E|---------------------------------|-------------------------------3-|

e|---------------------------------|---------------------.-----------|
b|---------------------0-----------|---------------------0-----------|
g|-----0---------------------------|-----0---------------------------|
d|-2-------3---2---2-------3---2---|-2-------3---2---2---------------|
a|---------------------------------|---------------------------------|
E|---3---3---3---3---3---3---3---3-|---3---3---3---3---3-------------|


1:29  - 1:57


Guitar 1
e|-----------------------------|----------------------------|
b|-------------------0---------|------------------0---------|
g|-----0-----------------------|----0-----------------------|
d|---------3---2---------3---2-|--------3---2---------3---2-|
a|-000---0---0---000---0---0---|-000--0---0---000---0---0---|
E|-----------------------------|----------------------------|

Guitar 2
e|-------------------------------------------------|
B|-------------------------------------------------|
G|----------------4~----------------------4~-------|
D|----5~-3~-2~-------3~-2~----5~-3~-2~-------3~-2~-|
A|-0-----------0-----------0-----------0-----------|
E|-------------------------------------------------|

Guitar 1
e|-----------------------------|----------------------------|
b|-------------------0---------|------------------0---------|
g|-----0-----------------------|----0-----------------------|
d|---------3---2---------3---2-|--------3---2---------3---2-|
a|-----------------------------|----------------------------|
E|-333---3---3---333---3---3---|-333--3---3---333---3---3---|

Guitar 2
e|-------------------------------------------------|
B|-------------------------------------------------|
G|----------------4~----------------------4~-------|
D|----5~-3~-2~-------3~-2~----5~-3~-2~-------3~-2~-|
A|-------------------------------------------------|
E|-3-----------3-----------3-----------3-----------|


Guitar 1
e|-----------------------------|----------------------------|
b|-------------------0---------|------------------0---------|
g|-----0-----------------------|----0-----------------------|
d|---------3---2---------3---2-|--------3---2---------3---2-|
a|-000---0---0---000---0---0---|-000--0---0---000---0---0---|
E|-----------------------------|----------------------------|

Guitar 2
e|-------------------------------------------------|
B|-------------------------------------------------|
G|----------------4-----------------------4--------|
D|----5--3--2~-------3--2~----5--3--2~-------3--2~-|
A|-0-----------0-----------0-----------0-----------|
E|-------------------------------------------------|

Guitar 1
e|-----------------------------|----------------------------|
b|-------------------0---------|------------------0---------|
g|-----0-----------------------|----0-----------------------|
d|---------3---2---------3---2-|--------3---2---------3-----|
a|-----------------------------|----------------------------|
E|-333---3---3---333---3---3---|-333--3---3---333---3---3---|

Guitar 2
e|-------------------------------------------------|
B|-------------------------------------------------|
G|----------------4-----------------------4--------|
D|----5--3--2~-------3--2~----5--3--2~-------3--2~-|
A|-------------------------------------------------|
E|-3-----------3-----------3-----------3-----------|



1:58  -  2:10

e|--------------------------------------------------------------|
b|------------------------------------------------------0-------|
g|---------0---------------0------------0-----------------------|
d|-2---2-------3---2---2------3---2---2-----3---2---2-------3---|
a|---0---0---0---0---0---0--0---0---0-----0---0---0---0---0---0-|
E|--------------------------------------------------------------|

e|------------------------------------------------------------------|
b|------------------------------------------------------0-----------|
g|---------0---------------0------------0---------------------------|
d|-2---2-------3---2---2------3---2---2-----3---2---2-------3---2---|
a|---0---0---0---0---0---0--0---0---0-----0---0---0---0---0---0---0-|
E|------------------------------------------------------------------|

2:11  -  2:24

e|---------------------------------|---------------------------------|
b|---------------------0-----------|---------------------0-----------|
g|-----0---------------------------|-----0---------------------------|
d|-2-------3---2---2-------3---2---|-2-------3---2---2-------3---2---|
a|---0---0---0---0---0---0---0---0-|---0---0---0---0---0---0---0-----|
E|---------------------------------|-------------------------------3-|



e|---------------------------------|---------------------.------------|
b|---------------------0-----------|---------------------0------------|
g|-----0---------------------------|-----0----------------------------|
d|-2-------3---2---2-------3---2---|-2-------3---2---2----------------|
a|---------------------------------|----------------------------------|
E|---3---3---3---3---3---3---3---3-|---3---3---3---3---3--------------|


2:25  - 2:52

e|---------------------|---------------------|------------------------|
b|-----1---------3-----|-----1---------1-----|-----1---------3--------|
g|-------0---------0---|-------0---------0---|-------0---------0------|
d|---2-----2---0-----0-|---2-----2---2-----2-|---------3---0-----0----|
a|-3-------------------|-0---------0---------|---3--------------------|
E|-----------3---------|---------------------|-1---------3------------|


e|-----------------0-|
b|-----0---1---3-----|
g|-------2---2---2---|
d|---2---------------|
a|-0-----------------|
E|-------------------|

e|---------------------|---------------------|------------------------|
b|-----1---------3-----|-----1---------1-----|-----1---------3--------|
g|-------0---------0---|-------0---------0---|-------0---------0------|
d|---2-----2---0-----0-|---2-----2---2-----2-|---------3---0-----0----|
a|-3-------------------|-0---------0---------|---3--------------------|
E|-----------3---------|---------------------|-1---------3------------|


e|-----------------0-|
b|-----0---1---3-----|
g|-------2---2---2---|
d|---2---------------|
a|-0-----------------|
E|-------------------|


2:53  -  3:31

The solo:

e|------------------------------------------|
b|------------------------------------------|
g|--0h5h7~---/9-\5--4--0---4h5p4p0--4h5p4p0-|
d|------------------------------------------|
a|------------------------------------------|
E|------------------------------------------|

e|-----------------------------------------------------------------------|
b|-----------------------------------------------------------------------|
g|-0h5h7~--/9--/12--/14~-12----12h14--12----12h14--12----12h14-\9~----\*-|
d|--------------------------14-----------14-----------14-----------------|
a|-----------------------------------------------------------------------|
E|-----------------------------------------------------------------------|


3:32  -  3:45

e|-----------------------------------|---------------------------------|
b|-----------------------0-----------|---------------------0-----------|
g|-------0---------------------------|-----0---------------------------|
d|---2-------3---2---2-------3---2---|-2-------3---2---2-------3---2---|
a|-0---0---0---0---0---0---0---0---0-|---0---0---0---0---0---0---0-----|
E|-----------------------------------|-------------------------------3-|



e|---------------------------------|---------------------------------|
b|---------------------0-----------|---------------------0-----------|
g|-----0---------------------------|-----0---------------------------|
d|-2-------3---2---2-------3---2---|-2-------3---2---2---------------|
a|---------------------------------|---------------------------------|
E|---3---3---3---3---3---3---3---3-|---3---3---3---3---3-------------|


3:46  -  4:13

Guitar 1
e|-----------------------------|----------------------------|
b|-------------------0---------|------------------0---------|
g|-----0-----------------------|----0-----------------------|
d|---------3---2---------3---2-|--------3---2---------3---2-|
a|-000---0---0---000---0---0---|-000--0---0---000---0---0---|
E|-----------------------------|----------------------------|

Guitar 2
e|-------------------------------------------------|
B|-------------------------------------------------|
G|----------------4~----------------------4~-------|
D|----5~-3~-2~-------3~-2~----5~-3~-2~-------3~-2~-|
A|-0-----------0-----------0-----------0-----------|
E|-------------------------------------------------|

Guitar 1
e|-----------------------------|----------------------------|
b|-------------------0---------|------------------0---------|
g|-----0-----------------------|----0-----------------------|
d|---------3---2---------3---2-|--------3---2---------3---2-|
a|-----------------------------|----------------------------|
E|-333---3---3---333---3---3---|-333--3---3---333---3---3---|

Guitar 2
e|-------------------------------------------------|
B|-------------------------------------------------|
G|----------------4~----------------------4~-------|
D|----5~-3~-2~-------3~-2~----5~-3~-2~-------3~-2~-|
A|-------------------------------------------------|
E|-3-----------3-----------3-----------3-----------|


Guitar 1
e|-----------------------------|----------------------------|
b|-------------------0---------|------------------0---------|
g|-----0-----------------------|----0-----------------------|
d|---------3---2---------3---2-|--------3---2---------3---2-|
a|-000---0---0---000---0---0---|-000--0---0---000---0---0---|
E|-----------------------------|----------------------------|

Guitar 2
e|-------------------------------------------------|
B|-------------------------------------------------|
G|----------------4-----------------------4--------|
D|----5--3--2~-------3--2~----5--3--2~-------3--2~-|
A|-0-----------0-----------0-----------0-----------|
E|-------------------------------------------------|

Guitar 1
e|-----------------------------|----------------------------|
b|-------------------0---------|------------------0---------|
g|-----0-----------------------|----0-----------------------|
d|---------3---2---------3---2-|--------3---2---------3-----|
a|-----------------------------|----------------------------|
E|-333---3---3---333---3---3---|-333--3---3---333---3---3---|

Guitar 2
e|-------------------------------------------------|
B|-------------------------------------------------|
G|----------------4-----------------------4--------|
D|----5--3--2~-------3--2~----5--3--2~-------3--2~-|
A|-------------------------------------------------|
E|-3-----------3-----------3-----------3-----------|


4:14  -  4:53 (the end is not correct...)

Guitar 1
e|---------------------|---------------------|------------------------|-----------------0-|
b|-----1---------3-----|-----1---------1-----|-----1---------3--------|-----0---1---3-----|
g|-------0---------0---|-------0---------0---|-------0---------0------|-------2---2---2---|
d|---2---------0-------|---2---------2-------|-------------0----------|---2---------------|
a|-3-------------------|-0---------0---------|---3--------------------|-0-----------------|
E|-----------3---------|---------------------|-1---------3------------|-------------------|

Guitar 2
e|--------------------|----------------------|
b|--------------------|----------------------|
g|-9------7-----------|------------7---------|
d|-9------7-----7-----|----10------7-------7-|
a|-7------5-----7-----|----10------5-------7-|
E|--------------5-----|----8---------------5-|



Guitar 1
e|---------------------|---------------------|------------------------|------------------|
b|-----1---------3-----|-----1---------1-----|-----1---------3--------|------------------|
g|-------0---------0---|-------0---------0---|-------0---------0------|---2--------------|
d|---2---------0-------|---2---------2-------|-------------0----------|------------------|
a|-3-------------------|-0---------0---------|---3--------------------|-0----------------|
E|-----------3---------|---------------------|-1---------3------------|------------------|

Guitar 2
e|--------------------|----------------------|
b|--------------------|----------------------|
g|-9------7-----------|------------7---------|
d|-9------7-----7-----|----10------7-------7-|
a|-7------5-----7-----|----10------5-------7-|
E|--------------5-----|----8---------------5-|





Comments


Popular Anathema tabs & chords
Fragile Dreams 3 Bass Tabs
Lost Control Bass Tabs
Silent Enigma Bass Tabs
Better Off Dead Chords
Cries On The Wind Tabs
How Fortunate The Man With None Tabs
Leave No Trace Tabs
Make It Right Tabs
One Last Goodbye 1 Tabs
Lost Control Ukulele


Song lyrics



↑ Back to top | Tablatures and chords are parodies/interpretations of the original songs. You may use it for private study, scholarship, research or language learning purposes only
© 2014 AZChords.com Contact us | Privacy policy | DMCA | Add/correct tabs | Request tabs | Top 50 tabs