» » »

Cries On The Wind Tabs (ver.1)

Artists:  A B C D E F G H I J K L M N O P Q R S T U V W X Y Z # 

Cries On The Wind Tabs (ver.1)

Anathema
Rating:
0/5 (0 votes)

Hard to play? Try these video lessons and learn fast.
                Anthema - Cries on the Wind


Riff A
e |-------------------------------------------------------------------
B |-------------------------------------------------------------------
G |---1---1-0----0--0-------------------------------------------------
D |-------------------3-3-3-2-----2--2--------------------------------
A |-3---3------------------------------4-4-4-3-----3--3-1-1-1-3----3--
C |------------0---------------0----------------0----------------0----

Repeat several times (listen to the song)

Riff B
Heavy part (not sure but sounds close enough)
e |-----------------------------------------------------------------------
B |-----------------------------------------------------------------------
G |----5-5-5-5-5---4----4---5-5-5-5-5--7---7--5/7-7-7-5-4---4--0-4-4-4-0-5
D |----5-5-5-5-5---4----4---5-5-5-5-5--7---7--5/7-7-7-5-4---4--0-4-4-4-0-5
A |----3-3-3-3-3---2----2---3-3-3-3-3--5---5--3/5-5-5-3-2---2--0-2-2-2-0-3
C |-----------------------------------------------------------------------
            
Hard to play? Try these video lessons and learn fast. | Correct




comments powered by Disqus
↑ Back to top | Tablatures and chords are parodies/interpretations of the original songs. You may use it for private study, scholarship, research or language learning purposes only