>
 >
Crestfallen

Crestfallen Bass Tabs

Anathema - Crestfallen chords, tabs, tablatures, lyrics

Guitar lessons | Add/correct | Request | Top 50 tabs Artists:  A B C D E F G H I J K L M N O P Q R S T U V W X Y Z 0-9

Crestfallen Bass Tabs – Anathema

CD, Sheet music, Poster

Do you like Crestfallen? Share with your friends now
Bass TabsTabs
================================================================================
                                A N A T H E M A

                                       -

                              C R E S T F A L L E N
================================================================================


                               THE CRESTFALLEN [EP]
                         (c)  Peaceville Records (1992)


                          Standard Tuning [5-String Bass]
                                    B E A D G

                                  Tempo = 65 BPM
                              Time Signature = 4/4



                          -----------------------------

                                 PADDY MCMULLAN

                                   Version 1.0
                                 18th April 2009
                             -----------------------

                             Tablature Symbols Used:


 p         -  Pull-Off
 h         -  Hammer-On
 (/)       -  Legato Slide (Blank space indicates length of slide)
 \         -  Slide Down to/Down From (Blank space indicates length of slide)
 /         -  Slide Up To/Up From (Blank space indicates length of slide)
 ( )       -  Ghost Note/Tied Note/Implied Note
 REST      -  Rest and sustain rest for duration of blank space
 |_3_|     -  Triplet Notes
 |___[1]   -  Ending 1/2/3 etc.
 9b10r9    -  Bend note to the indicated pitch, then release
 3~~       -  Vibrato



================================================================================
Intro Part I [w/ Piano]: Play once
================================================================================


  1                       2
||-----------------------|------------------------|
||-----------------------|------------------------|
||--5--7--7--------------|------------------------|
||-------------0------0--|--0------0--0--0--0--2--|
||-----------------------|------------------------|

 3                       4                      5
|-----------------------|----------------------|-----------------------|
|-----------------------|----------------------|-----------------------|
|-------------5---------|------------5---------|-------------3---------|
|--3--5-----------------|-------------------2--|--3--5-----------------|
|--------3-----------3--|--3------3------------|--------1-----------1--|

 6                       7                       8
|-----------------------|-----------------------|----------------------|
|-----------------------|-----------------------|----------------------|
|-----------------------|-------------5---------|------------5---------|
|-----------------------|-----------------------|----------------------|
|--1------1--1--1----1--|--1--3--3-----------3--|--3------3---------3--|

 9                       10                      11
|-----------------------|-----------------------|-----------------------|
|-----------------------|-----------------------|-----------------------|
|-------------3---------|-----------------------|-----------------------|
|-----------------------|-----------------------|-------------7---------|
|--3--1--1-----------1--|--1------1--1--1----1--|--1--0--0-----------0--|

 12                     13                      14
|----------------------|-----------------------|----------------------|
|----------------------|-----------------------|----------------------|
|----------------------|-----------------------|----------------------|
|------------7------7--|--7--5--5----5------5--|--5------5--5---------|
|--0------0------------|-----------------------|-------------------1--|

 15                    16
|---------------------|--------------------------||
|---------------------|--------------------------||
|---------------------|--------------------------||
|---------------------|--------------------------||
|--3--5--5------------|--5--5--3--3--1--1--0--0--||



================================================================================
Intro Part II [w/ Guitars]: Play once [ Tempo = 72 BPM ]
================================================================================


This is essentially the same riff as Intro Part I, with some slight variations


  1                       2
||-----------------------|------------------------|
||-----------------------|------------------------|
||--5--7--7--------------|------------------------|
||-------------0------0--|--0------0--0--0--0--2--|
||-----------------------|------------------------|

 3                       4                       5
|-----------------------|-----------------------|-----------------------|
|-----------------------|-----------------------|-----------------------|
|-------------5---------|------------5----------|-------------3---------|
|--3--5-----------------|--------------------2--|--3--5-----------------|
|--------3-----------3--|--3------3-------3-----|--------1-----------1--|

 6                       7                       8
|-----------------------|-----------------------|----------------------|
|-----------------------|-----------------------|----------------------|
|-----------------------|-------------5---------|------------5---------|
|-----------------------|-----------------------|----------------------|
|--1------1--1--1----0--|--1--3--3-----------3--|--3------3---------3--|

 9                       10                      11
|-----------------------|-----------------------|-----------------------|
|-----------------------|-----------------------|-----------------------|
|-------------3---------|-----------------------|-----------------------|
|-----------------------|-----------------------|-------------7---------|
|--3--1--1-----------1--|--1------1--1--1----1--|--1--0--0-----------0--|

 12                     13                      14
|----------------------|-----------------------|------------------------|
|----------------------|-----------------------|------------------------|
|----------------------|-----------------------|------------------------|
|------------7------7--|--7--5--5----5------5--|--5------5--5----5\ ----|
|--0------0------------|-----------------------|---------------------1--|

 15                    16
|---------------------|-------------------||
|---------------------|-------------------||
|---------------------|-------------------||
|---------------------|-------------------||
|--3--5--5------------|--(5)--------------||



================================================================================
Section 1: Play 4 times [ Tempo = 74 BPM ]
================================================================================


| |-------------------|/|----------------| |-----------------------------|
|3|-------------------|/|----------------|5|-----------------------------|
|/|-------------------|/|----------------|/|-----------------------------|
|4|--7--8--7--5--7----|/|--0--------3----|4|-------2--3---------2--3--5--|
| |-------------------|/|----------------| |--1----------3---------------|


                    |__________________________[1,2,3]
| |-----------------| |----------------------------| |
|3|-----------------|5|----------------------------|*|
|/|-----------------|/|----------------------------| |
|4|--3------2-------|4|--8--------7--8--7--5--7----|*|
| |------------0----| |----------------------------| |

|_________________________[4]
| |------------------------||
|5|------------------------||
|/|------------------------||
|4|--8------8-8\ 2----3----||
| |------------------------||



The first bar is only played the first time



================================================================================
Section 2 - Part I: play twice
================================================================================


||-------------------|-----------------------|-------------------|
||-------------------|-----------------------|-------------------|
||-------------------|-----------------------|-------------------|
||--0----------------|-(0)---------2----3----|--0----------------|
||-------------------|---------0-0-----------|-------------------|


|-----------------------| |
|-----------------------|*|
|-----------------------| |
|-(0)---------2----3----|*|
|---------0-0-----------| |



================================================================================
Section 2 - Part II: [ Tempo = 68 BPM ]
================================================================================


||-----------------R-    -|-                 -| |
||-----------------E-    -|-                 -|*|
||-----------------S-    -|-                 -| | x 3
||-----------------T-    -|-                 -|*|
||--0--0--0--0--0---------|-------------------| |


|------------------------|---------------------||
|------------------------|---------------------||
|------------------------|---------------------||
|------------------------|---------------------||
|--0--0--0--0--0--0------|-(0)-------2----3----||



================================================================================
Section 3: Play 4 times [ Tempo = 72 BPM ]
================================================================================


||------------------------|----------------------|
||------------------------|----------------------|
||------------------------|----------------------|
||--------------3----2----|------------2----3----|
||--0--0--0--0------------|--1------0------------|

                          |____________________[1,2,3]
|-------------------------|------------------------| |
|-------------------------|------------------------|*|
|-------------------------|--2--0------------------| |
|--------------3--2-------|--------2-----2----3----|*|
|--0--0--0--0--------3----|-----------0------------| |

|_________________________[4]
|-----------------------R -|| 
|-----------------------E -||
|--2--0-----------------S -||
|--------2--------------T -||
|-----------0--0--0--0-----||



Over the course of this riff the tempo gradually increases to 76 BPM



================================================================================
Section 4: Play 4 times
================================================================================


||----------------------------|------------------------R -|
||----------------------------|------------------------E -|
||----------------------------|------------------------S -|
||----------3------------2----|----------3-------------T -|
||--0-0-0-0------0-0-0-0------|--0-0-0-0------0--0--0-----|

                             |_________________________[1,2,3]
|----------------------------|--------------------------R -| |
|----------------------------|--------------------------E -|*|
|----------------------------|--------------------------S -| |
|----------3------------5----|----------7--  \----------T -|*|
|--0-0-0-0------0-0-0-0------|--0-0-0-0--------0--0--0-----| |


|__________________________[4]
|---------------------------||
|---------------------------||
|---------------------------||
|----------7--  \-2----3----||
|--0-0-0-0------------------||



================================================================================
Play Section 3 four times [ Tempo = 70 - 78 BPM ]
================================================================================

================================================================================
Play Section 4 four times [ Tempo = 76 - 78 BPM ] with variations
================================================================================

================================================================================
Section 4 Variations: Guitar 1 & 2 [ Tempo = 86 BPM ]
================================================================================


The last bar of Section 4 is replaced with the following:


| |---------------------------------------||
|6|---------------------------------------||
|/|-----------------------2----2--4--5----||
|4|----------7--  \-2--3------------------||
| |--0-0-0-0------------------------------||



================================================================================
Section 5: Play twice [ Tempo gradually increases to 90 BPM ]
================================================================================


||----------------------------------|------------------------|
||----------------------------------|------------------------|
||----------------------------------|--------2----4--5--0----|
||----------------------------------|--2--3------------------|
||--3-3-3-3-3-3-3-3-3-3-3-3-3-3-3-3-|------------------------|


|----------------------------------|------------------------|
|----------------------------------|------------------------|
|--0-0-0-0-0-0-0-0-0-0-0-0-0-0-0-0-|--5--4--2----4--5-------|
|----------------------------------|-------------------3----|
|----------------------------------|------------------------|


|----------------------------------|------------------------|
|----------------------------------|------------------------|
|----------------------------------|------------------------|
|--3-3-3-3-3-3-3-3-3-3-3-3-3-3-3-3-|------------------------|
|----------------------------------|--2--2----2--3--3----3--|

|_________________________________________________[1]
|------------------------|------------------------| |
|------------------------|------------------------|*|
|------------------------|--------2----2--4--5----| |
|--2----2--2--0----0--0--|--2--3------------------|*|
|------------------------|------------------------| |

|________________________________[2]
|----------------------------------||
|----------------------------------||
|------------------------*---------||
|--2----2--2--0----0--0--2----3----||
|----------------------------------||



* At this point the tempo decreases to 65 BPM



================================================================================
Play Section 3 twice
================================================================================

================================================================================
Section 6: Play twice [ Tempo = 70 - 74 BPM ]
================================================================================


||-------------------|-----------------------|-----------------------|
||-------------------|-----------------------|-----------------------|
||-------------------|-----------------------|-----------------------|
||--0----------------|-(0)---------2----3----|-----------------------|
||-------------------|---------0-0-----------|--0--0--0--0--0--------|


|-----------------------| |
|-----------------------|*|
|-----------------------| |
|-------------2----3----|*|
|-(0)-----0-0-----------| |



================================================================================
Section 7: Play once [ Tempo gradually increases to 80 BPM ]
================================================================================


  1                   2                 3
||-------------------|-----------------|-----------------------------|
||-------------------|-----------------|-----------------------------|
||-------------------|-----------------|-----------------------------|
||--2--3--2--0--2----|-----------------|--3------0-3-5------5--5--3--|
||-------------------|--0------0--3----|-----------------------------|

 4                 5                             6
|-----------------|-----------------------------|----------------|
|-----------------|-----------------------------|----------------|
|-----------------|-----------------------------|----------------|
|--2---------3----|--3---------2--3--2--0--2----|----------------|
|---------3-------|---------0-------------------|--0--------3----|

 7                             8
|-----------------------------|-----------------|
|-----------------------------|-----------------|
|-----------------------------|-----------------|
|--3------0-3-5------5--5--3--|--2---------3----|
|-----------------------------|---------3-------|

 9                            10
|----------------------------|----------------|
|----------------------------|----------------|
|----------------------------|----------------|
|--3--------2--3--2--0--2----|----------------|
|----------------------------|--0--------3----|

 11                            12
|-----------------------------|-----------------|
|-----------------------------|------------5----|
|-----------------------------|-----------------|
|--3------0-3-5------5--5--3--|--2--------------|
|-----------------------------|---------3-------|

 13                           14
|----------------------------|----------------|
|----------------------------|----------------|
|----------------------------|----------------|
|--3--------2--3--2--0--2----|----------------|
|----------------------------|--0--------3----|

 15                            16                17 
|-----------------------------|-----------------|--------------------R -||
|-----------------------------|------------5----|--------------------E -||
|-----------------------------|---------5-------|--------------------S -||
|--3------0-3-5------5--5--3--|--2--------------|--------------------T -||
|-----------------------------|-----------------|--3--------0--0--0-----||



================================================================================
Play Section 4 four times [ Tempo = 78 - 84 BPM ]
================================================================================

================================================================================
End
================================================================================


Tab summary:        Intro Part I x 1
                    Intro Part II x 1
                    Section 1 x 1
                    Section 2 x 2
                    Section 3 x 4
                    Section 4 x 4
                    Section 3 x 4
                    Section 4 w/ Variations x 4
                    Section 5 x 1 + Lead Fills
                    Section 3 x 2
                    Section 6 x 1
                    Section 7 x 1
                    Section 4 x 4
                    
                    END





Comments


Popular Anathema tabs & chords
Beloved Bass Tabs
Silent Enigma Bass Tabs
Sleepless Bass Tabs
We, The Gods 1 Bass Tabs
Dreaming Light Tabs
Forgotten Hopes Tabs
Sleep In Sanity Tabs
Temporary Peace Tabs
Lost Control Ukulele
One Last Goodbye Ukulele


Song lyrics



↑ Back to top | Tablatures and chords are parodies/interpretations of the original songs. You may use it for private study, scholarship, research or language learning purposes only
© 2014 AZChords.com Contact us | Privacy policy | DMCA | Add/correct tabs | Request tabs | Top 50 tabs