» » »

Are You There Hindsight Tabs (ver.1)

Artists:  A B C D E F G H I J K L M N O P Q R S T U V W X Y Z # 

Are You There Hindsight Tabs (ver.1)

Anathema
Rating:
5/5 (8 votes)

Hard to play? Try these video lessons and learn fast.
                (Sion)
Anathema “Are you There – Hindsight version”.


CAPO on 5th Fret.

Intro (this is continued throughout the whole song)

e|-----------0-----------------0-----------------------0----------------|
B|-------1---------1--------1---------1------------1---------1----------|
G|----0---0-----0---0----0---0----0----0-------0----0-----0---0---------|
D|---2-----2---2-----2--2-----2--2------2----2--------2--2-----2--------|
A|--0--0-----0---0------------------------------------------------------|
E|--------------------0---0----0----0-------1----1-----1----1-----------|


Last bar before 1st chorus (only last couple of notes are different)
e|-----------0-----------------0-----------------------0---------------|
B|-------1---------1--------1---------1------------1---------0-1-------|
G|----0---0-----0---0----0---0----0----0-------0----0-----0------------|
D|---2-----2---2-----2--2-----2--2------2----2--------2--2-------------|
A|--0--0-----0---0-----------------------------------------------------|
E|--------------------0---0----0----0-------1----1-----1---------------|

Variation after 1st and 2nd chorus

e|-----------3p0--0---------3p0----------------------0----------|
B|-------1-------3-------1-------3-1-------1---3p1----1---------|
G|----0---0-----0-----0---0----0--------0---0------0------------|
D|---2-----2---2-----2-----2--2--------2-----2----2-------------|
A|--0--0--------------------------------------------------------|
E|------------------0---0------------1---1----------------------|

e|-----------------0--------3p0----------------3p0-----0--------|
B|-------1---3p1--1------1-------3-1-------1----------1---------|
G|----0---0-----0-----0---0----0--------0---0------0------------|
D|---2-----2---2-----2-----2--2--------2-----2----2-------------|
A|--0--0--------------------------------------------------------|
E|------------------0---0------------1---1----------------------|

Happy practising, it’s not as hard as it sounds!
            
Hard to play? Try these video lessons and learn fast. | Correct




comments powered by Disqus
↑ Back to top | Tablatures and chords are parodies/interpretations of the original songs. You may use it for private study, scholarship, research or language learning purposes only