>
 >
Angels Walk Among Us

Angels Walk Among Us Bass Tabs

Anathema - Angels Walk Among Us chords, tabs, tablatures, lyrics

Guitar lessons | Add/correct | Request | Top 50 tabs Artists:  A B C D E F G H I J K L M N O P Q R S T U V W X Y Z 0-9

Angels Walk Among Us Bass Tabs – Anathema

CD, Sheet music, Poster

Do you like Angels Walk Among Us? Share with your friends now
Bass TabsTabs
================================================================================
                                A N A T H E M A

                                       -

                     A N G L E S   W A L K   A M O N G   U S
================================================================================


                          WE'RE HERE BECAUSE WE'RE HERE
                           (c) KScope Records (2010)


                              Tune down half a step:
                                   D# G# C# F#

                                  Tempo = 90 BPM
                              Time Signature = 3/4


                          -----------------------------

                                 PADDY MCMULLAN

                                   Version 1.0
                                  4th June 2010
                             -----------------------

                             Tablature Symbols Used:


 (/)       -  Legato Slide (Blank space indicates length of slide)
 \         -  Slide Down to/Down From (Blank space indicates length of slide)
 /         -  Slide Up To/Up From (Blank space indicates length of slide)
 ( )       -  Ghost Note/Tied Note/Implied Note
 REST      -  Rest and sustain rest for duration of blank space
 |___[1]   -  Ending 1/2/3 etc.



================================================================================
Intro: Play once
================================================================================


Rest for 11 bars


||--R--  -----------|---------------|---------------|------------------|
||--E--  --10----9--|---------------|---------------|------------------|
||--S--  -----------|--8------------|--7------------|--8------------ / |
||--T--  -----------|---------------|---------------|------------------|


|----------------||
|----------------||
|--10------------||
|----------------||



================================================================================
Section 1: Repeats outlined below
================================================================================


[Part 1:] x 2


||---------------|-------------------|---------------|----------------|
||---------------|-------------------|---------------|----------------|
||--0------------|--10----------  \--|--0------------|--10------------|
||---------------|-------------------|---------------|----------------|


|---------------|----------------|---------------|-------------------| |
|---------------|----------------|---------------|-------------------|*|
|--8------------|--10------------|--8------------|--10----------  \--|*|
|---------------|----------------|---------------|-------------------| |



[Part 2:] x 2


||------------------|--------------------|------------------|
||------------------|--------------------|------------------|
||--0---0---0--0----|--10------10--10----|--0---0---0--0----|
||------------------|--------------------|------------------|


|----------------------|------------------|----------------------|
|--------------9 h 10--|------------------|--------------9 h 10--|
|--10------10----------|--8---8---8--8----|--10------10----------|
|----------------------|------------------|----------------------|


|------------------|---------------------| |
|------------------|--------------10--9--|*|
|--8---8---8--8----|--10------10---------|*|
|------------------|---------------------| |



[Part 3:] x 2


||-------------------|------------------|-------------------|
||----------9--10----|--9---9---7--5----|----------9--10----|
||--0---0------------|------------------|--0---0------------|
||-------------------|------------------|-------------------|


|----------------------|--------------------|----------------------|
|--------------9 h 10--|--------------------|--------------9 h 10--|
|--10------10----------|--8---8---10--12----|--10------10----------|
|----------------------|--------------------|----------------------|


|--------------------|---------------------| |
|--------------------|--------------10--9--|*|
|--8---8---10--12----|--10------10---------|*|
|--------------------|---------------------| |



[Part 4:] x 2



||--------------------|-------------------|--------------------|
||-------------7-  \--|-------------------|-------------7-  \--|
||--0---0---0---------|-------------3--2--|--0---0---7---------|
||--------------------|--3---3---3--------|--------------------|


|-------------------|--------------------|-------------------|
|-------------------|--------------------|-------------------|
|-------------2--3--|--------------------|-------------2--3--|
|--3---3---3--------|--1---1---3--5--- \ | -3---3---3--------|


|--------------------|-------------------| |
|--------------------|-------------------|*|
|--------------------|-------------3--2--|*|
|--1---1---3--5--- \ |--3---3---3--------| |



[Part 5:] x 2


||---------------------|---------------------|---------------------|
||---------------------|---------------------|---------------------|
||---------------------|---------------------|---------------------|
||--5---5--5-5--5--5 \ |--3---3--3-3--3--3 / |--5---5--5-5--5--5 \ |


|--------------------|---------------------|--------------------|
|--------------------|---------------------|--------------------|
|--------------2--3--|---------------------|--------------2--3--|
|--3---3--3-3--------|--1---1--1-1--1--1 / | -3---3--3-3--------|


|---------------------|--------------------| |
|---------------------|--------------------|*|
|---------------------|--------------3--2--|*|
|--1---1--1-1--1--1 / | -3---3--3-3--------| |



[Part 6:] x 2


||-------------------|--------------------|-------------------|
||-------------------|--------------------|-------------------|
||--0---0--0-2--3----|--2---2--0-0--------|--0---0--0-2--3----|
||-------------------|--------------3--3--|-------------------|


|--------------------|-------------------|--------------------|
|--------------------|-------------------|--------------------|
|--------------2--3--|-------------------|--------------2--3--|
|--3---3---3-3-------|--1---1--1-3--5----|--3---3--3-3--------|


|--------------------|--------------------| |
|--------------------|--------------------|*|
|--------------------|--------------3--2--|*|
|--1---1--1-3--5--5--|--3---3--3-3--------| |



[Repeat Part 5 twice replacing the last 4 bars with the following:]


|---------------|---------------|---------------|---------------|
|---------------|---------------|---------------|---------------|
|---------------|---------------|---------------|---------------|
|--1------------|--3------------|--1------------|--3------------|


|---------------||
|---------------||
|---------------||
|--5------------||



[Part 7:] x 2


||---------------|---------------|---------------|------------------|
||---------------|---------------|---------------|------------------|
||---------------|---------------|---------------|------------------|
||--5------------|--3------------|--5------------|--3------------ \ |


|---------------|------------------|------------------|------------------| |
|---------------|------------------|------------------|------------------|*|
|---------------|-----------2 h 3--|------------------|------------------|*|
|--1------------|--3---------------|--1------------ / |--3----------- /--| |



================================================================================
Outro: Play twice
================================================================================


||---------------|---------------|---------------|---------------|
||---------------|---------------|---------------|---------------|
||---------------|---------------|---------------|---------------|
||--5------------|--(5)----------|--5------------|--(5)----------|


|---------------|---------------|---------------|---------------| |
|---------------|---------------|---------------|---------------|*|
|---------------|---------------|---------------|---------------|*| x 2
|--1------------|-(1)-----------|--1------------|--(1)----------| |


|---------||
|---------||
|---------||
|--5------||

================================================================================
End
================================================================================


Tab summary:        Intro x 1
                    Section 1:
                              Part 1 x 2
                              Part 2 x 2
                              Part 3 x 2
                              Part 4 x 2
                              Part 5 x 2
                              Part 6 x 2
                              Part 5 x 2
                              Part 7 x 2
                    Outro x 2

                    END





Comments


Popular Anathema tabs & chords
Silent Enigma Bass Tabs
Leave No Trace Chords
A Natural Disaster 3 Tabs
Crestfallen Tabs
Deep 1 Tabs
Everwake Tabs
Everything Tabs
Looking Inside Outside Tabs
Forgotten Hopes Ukulele
Underworld Ukulele


Song lyrics



↑ Back to top | Tablatures and chords are parodies/interpretations of the original songs. You may use it for private study, scholarship, research or language learning purposes only
© 2014 AZChords.com Contact us | Privacy policy | DMCA | Add/correct tabs | Request tabs | Top 50 tabs