» » »

Anathema, A Natural Disaster Tabs (ver.2)

Artists:  A B C D E F G H I J K L M N O P Q R S T U V W X Y Z # 

A Natural Disaster Tabs (ver.2)

Anathema Tabs
 Rating:
4/5 (4 votes)
A Natural Disaster lessons Tabs too difficult? Try these video lessons and learn fast
                INTRO / VERSO

e|--------------------------------------------------------------------------|
b|-------------------------0--0--0------------------------------------------|
g|-----------0-------------0--3--0------------------------------------------|
D|--------4-----4----------2--2--2----------x-ARTAS-------------------------|
A|----7------------7-------3--X--2------------------------------------------|
E|-------------------------3--2--0------------------------------------------|

CORO

e|-----------------------------------|---------------------------2----------|
b|-------------------------0--0--0---|---------------------0--0--3----------|
g|-----------0-------------0--3--0---|---------0-----------0--0--4----------|
D|--------4-----4----------2--2--2---|------4-----4--------2--2--4----------|
A|----7------------7-------3--X--2---|---7-----------7-----3--2--2----------|
E|-------------------------3--2--0---|---------------------3--0--2----------|
            
Submit corrections

comments powered by Disqus
↑ Back to top | Anathema Tabs for A Natural Disaster. Lyrics for acoustic guitar and electric guitar. Tablatures and chords are parodies/interpretations of the original songs. You may use it for private study, scholarship, research or language learning purposes only