» » »

You Know I'm No Good Bass tabs (ver.3)

Artists:  A B C D E F G H I J K L M N O P Q R S T U V W X Y Z # 

You Know I'm No Good Bass tabs (ver.3)

Amy Winehouse
Rating:
0/5 (0 votes)

Tabs too difficult? Try these video lessons and learn fast.
                "You know I'm no good by Amy Winehouse
-------------------------------------
Very good song of Amy Winehouse on album 'Back to Black'
Enjoy it!!

Intro:
Drums, bass comes in after 2 bars:
G||----------------------------- | \
D||------------------------|---- |  X3
A||--5-------5-------3--4--|---- |
E||------------5--5------------- | /

Fourth time is slightly different:
G||-------------------------|
D||-------------------------|
A||--5-------5---5----3--4--|
E||------------5---5--------|

Verse 1:
|------------------------|------------------------------------ |    \
|------------------------|------------------------------|   -- |
|--5-------5-------8--9--|--10-------10---------10--11--|   -- |
|------------5--5--------|--------------10--10----------|   -- |
                                                             | X2
|----------------------------|------------------------|     -- |
|----------------------------|------------------------|     -- |
|--12------12---------12-----|--5-------5-------3--4--|     -- |
|-------------12--12------9--|------------5--5---------------- |      /

                             |------------------------|
                 2nd time:   |------------------------|
                             |--5-------5-------5-----|
                             |------------5--5-----5--|

Bridge 1:
|--------------------------|--------------------------|
|--5-----5-----5-----5-----|--5-----5-----5-----5-----|
|-----5-----5-----5-----5--|-----5-----5-----5-----5--|
|--------------------------|--------------------------|

|--------------------------|--------------------------|
|--------------------------|--------------------------|
|--7-----7-----7-----7-----|--7-----7-----7-----7-----|
|-----7-----7-----7-----7--|-----7-----7-----7-----7--|

|--------------------------|--------------------------|
|--------------------------|--------------------------|
|--8-----8-----8-----8-----|--8-----8-----8-----8-----|
|-----8-----8-----8-----8--|-----8-----8-----8-----8--|

|--------------------------|--------------------------|
|--------------------------|--7-----7-----7-----7-----|
|--7-----7-----7-----7-----|--------------------------|
|-----7-----7-----7-----7--|-----5-----5-----5-----5--|

Chorus 1:
|--------------------------|----------------------------------- |   \
|--------------------------|------------------------------|  -- |
|--5-------5-------10--11--|--12-------12---------12------|  -- |
|------------5--5----------|--------------12--12------10--|  -- |
                                                              | X2
|------------------------|------------------------------|    -- |
|------------------------|------------------------------|    -- |
|--7-------7-------7-----|-------12---12---------12-----|    -- |
|------------7--7-----7--|----7----------10--10------9--------- |     /

Break (2 bars rest)

Verse 2:
|------------------------|------------------------------|
|------------------------|------------------------------|
|--5-------5-------8--9--|--10-------10---------10--11--|
|------------5--5--------|--------------10--10----------|

|-----------------------------|-------7--7-7-7-7-7-7-7------|
|-----------------------------|------------------------7-0--|
|--12-------12---------12-----|--5--------------------------|
|--------------12--12------9--|-----------------------------|

|------------------------|------------------------------|
|------------------------|------------------------------|
|--5-------5-------8--9--|--10-------10---------10--11--|
|------------5--5--------|--------------10--10----------|

|-----------------------------|------------------------|
|-----------------------------|------------------------|
|--12-------12---------12-----|--5-------5-------5-----|
|--------------12--12------9--|------------5--5-----5--|

Bridge 2 (same as bridge 1)

Chorus 2 (same as chorus 2)

Break:
3 bars rest and then
|---------------------------|
|-----------7---7---7---7---|
|---------------------------|
|---------5---5---5---5---5-|

Interlude (saxophone solo):
|--------------------------|------------------------------|
|--------------------------|------------------------------|
|--5-------5-------10--11--|--12-------12---------12------|
|------------5--5----------|--------------12--12------10--|

|------------------------|-----------------------------------|----|----|
|------------------------|-----------------------------------|----|----|
|--7-------7-------7-----|-------10-12--10-12--10-12--10-12--|----|----|
|------------7--7-----7--|--5--------------------------------|----|----|

|-------------------|-------7--7-7-7-7-7-7-7------|
|----------------2--|------------------------7-0--|
|-------------------|--5--------------------------|
|-------------------|-----------------------------|

Verse 3:
Same as verse 1 but only play the riff once!

Bridge 3:
Same as bridge 1&2 except last bar => rest

Chorus 3&4 (same as chorus 1)

Outro (play chorus riff)


THE END

p.s.
There are some improvisations on last bar of each chorus riff (only in chorus 3&4 and 
but playing the normal riff also sounds good :p .

This was the first song I tabbed...please rate it!

Questions? Errors? => send me a mail
"            
Tabs too difficult? Try these video lessons and learn fast.




comments powered by Disqus
↑ Back to top | Tablatures and chords are parodies/interpretations of the original songs. You may use it for private study, scholarship, research or language learning purposes only