» » »

You Know I'm No Good Tabs (ver.2)

Artists:  A B C D E F G H I J K L M N O P Q R S T U V W X Y Z # 

You Know I'm No Good Tabs (ver.2)

Amy Winehouse
Rating:
0/5 (0 votes)

Hard to play? Try these video lessons and learn fast.
                "(1)
    ________________________
   / Amy Winehouse         /  This song was the one that really convinced me
  / You Know I'm No Good  /  what an amazing songwriter Amy Winehouse is.
 / Back to Black         /  Such a catchy song and such rich lyrics!
/_______________________/


 SONG STRUCTURE
*******************
   Intro
   Verse
   Bridge
   Chorus + 2 bars of drums

   Verse
   Bridge
   Chorus
   Chorus (brass)

   Verse
   Bridge
2x Chorus
2x Chorus (brass)



 GUITARS
***********
In this song there are three layers of guitar, and I'll notate them separately:

********************************************************************************
* 1st: The clean electric guitar panned in the left side.
*


 Intro: out


 Verse:
(key: D minor)
    Dm                Gm                A                 Dm
||------------------|-----------------|-----------------|------------------||
||o-------6---------|-------3---------|-------5---------|-------6---------o||
||------7-----------|-------3---------|-------6---------|-----7------------||
||----7-------------|-----5-----------|-----7-----------|---7--------------||
||o-5---------------|---5-------------|---7-------------|-5---------------o||
||------------------|-3---------------|-5---------------|------------------||



 Bridge:
                                    (new key: A minor)
  Gm                Gm                E                 E
|-----------------|-----------------|-------4---------|-------4---------|
|-------3---------|-------3---------|-------5---------|-------5---------|
|-------3---------|-------3---------|-------4---------|-------4---------|
|-----5-----------|-----5-----------|-----6-----------|-----6-----------|
|---5-------------|---5-------------|---7-------------|---7-------------|
|-3---------------|-3---------------|-0---------------|-0---------------|

  F                 F                 E                 A
|-------5---------|-----------------|-----------------|-----------------|
|-------6---------|--------------10-|--9--------------|-----------------|
|-----5-----------|----------10--10-|--9--------------|-----------------|
|---7-------------|--------10----10-|--9--------------|-----------------|
|-8---------------|-8-10/12------12-|-11--------------|-----------------|
|-----------------|-----------------|-----------------|-----------------|



 Chorus:
    Dm                Am                E7                Am
||------------------|-----------------|-----------------|------------------||
||o-------6---------|-------5---------|-------9---------|-------5---------o||
||------7-----------|-------5---------|-----9-----------|-------5----------||
||----7-------------|-----7-----------|---9-------------|-----7------------||
||o-5---------------|---7-------------|-7---------------|---7-------------o||
||------------------|-5---------------|-----------------|-5----------------||



 Chorus (brass): out




********************************************************************************
* 2nd: The clean, heavily reverbed electric guitar panned in the right side.
*      Notice that the two strums of each chord is on 2 and 3+.
       Strum in a short staccato, that means immediately mute the chord,
       in order for the reverb to ring out clearly.


 Intro: out


 Verse:
(key: D minor)
    Dm                Gm                A                 Dm
    1 + 2 + 3 + 4 +   1 + 2 + 3 + 4 +   1 + 2 + 3 + 4 +   1 + 2 + 3 + 4 +
||------5-----5-----|-----3-----3-----|-----5-----5-----|-----5-----5------||
||o-----6-----6-----|-----3-----3-----|-----5-----5-----|-----6-----6-----o||
||------7-----7-----|-----3-----3-----|-----6-----6-----|-----7-----7------||
||------------------|-----------------|-----------------|------------------||
||o-----------------|-----------------|-----------------|-----------------o||
||------------------|-----------------|-----------------|------------------||



 Bridge:
                                    (new key: A minor)
  Gm                Gm                E                 E
|-----3-----3-----|-----3-----3-----|-----4-----4-----|-----4-----4-----|
|-----3-----3-----|-----3-----3-----|-----5-----5-----|-----5-----5-----|
|-----3-----3-----|-----3-----3-----|-----4-----4-----|-----4-----4-----|
|-----------------|-----------------|-----------------|-----------------|
|-----------------|-----------------|-----------------|-----------------|
|-----------------|-----------------|-----------------|-----------------|

  F                 F                 E                 A7
  1 + 2 + 3 + 4 +   1 + 2 + 3 + 4 +
|---5-----5-------|---5-----5-------|-----------------|-----------------|
|---6-----6-------|---6-----6-------|-----------------|-----------------|
|---5-----5-------|---5-----5-------|-----------------|-----------------|
|-----------------|-----------------|-----------------|-----------------|
|-----------------|-----------------|-----------------|-----------------|
|-----------------|-----------------|-----------------|-----------------|



 Chorus:
    Dm                Am                E7                Am
||------5-----5-----|-----5-----5-----|-----4-----4-----|-----5-----5------||
||o-----6-----6-----|-----5-----5-----|-----5-----5-----|-----5-----5-----o||
||------7-----7-----|-----5-----5-----|-----4-----4-----|-----5-----5------||
||------------------|-----------------|-----------------|------------------||
||o-----------------|-----------------|-----------------|-----------------o||
||------------------|-----------------|-----------------|------------------||




********************************************************************************
* 3rd: The funky, clean electric guitar panned in the middle with the piano.
*      This is playing in the 1st and 2nd Chorus, and it's a bit hard to hear.


 (key: Am)
  Dm                Am                E7                Am
|-----------------|-----------------|---------7-7---5-|-----------------|
|--6-6-6---6--6---|---------5-------|---------9-9---5-|-----------------|
|--7-7-7---7--7---|---------5-------|---------7-7---5-|-----------------|
|--7-7-7---7--7---|-----------7-----|-----------------|-----------------|
|-----------------|-----------------|-----------------|-----------------|
|-----------------|-----------------|-----------------|-----------------|

  Dm9               Am                E7#9              Am
|--12-12-12-------|--5-5-5------5---|----10-------7---|-5--------5------|
|--13-13-13-------|--5-5-5------5---|-----9---8---x---|-x--------5------|
|--10-10-10-------|--5-5-5------5---|-----9---7---7---|-5--------5------|
|--12-12-12-------|-----------7-----|---------6-------|-----------------|
|-----------------|-----------------|-----------------|-----------------|
|-----------------|-----------------|-----------------|-----------------|



 LYRICS
**********
Meet you dowstairs in the bar and hurt
Your rolled up sleeves in your skull t-shirt
You say "What did you do with him today?"
and sniffed me out like I was Tanqueray
'Cause you're my fella,my guy
Hand me your Stella and fly
By the time I'm out the door
You tear men down like Roger Moore

I cheated myself
Like I knew I would
I told you I was trouble
You know that I'm no good

Upstairs in bed with my ex boy
He's in a place, but I can't get joy
Thinking on you in the final throes
This is when my buzzer goes
Run out to meet you, chips and pitta
You say "when we married"
'Cause you're not bitter
"There'll be none of him no more"
I cried for you on the kitchen floor

I cheated myself
Like I knew I would
I told you I was trouble
You know that I'm no good

Sweet reunion Jamaica and Spain
We're like how we were again
I'm in the tub, you on the seat
Lick your lips as I soap my feet
Then you notice likkle carpet burn
My stomach drop and my guts churn
You shrug and it's the worst
Who truly stuck the knife in first

I cheated myself
Like I knew I would
I told you I was trouble
You know that I'm no good


+-------------------------------------------------------------------------+
Jon Sebastian Frederiksen - 2nd /August /11
"            
Hard to play? Try these video lessons and learn fast. | Correct




comments powered by Disqus
↑ Back to top | Tablatures and chords are parodies/interpretations of the original songs. You may use it for private study, scholarship, research or language learning purposes only