>
 >
Valerie 1

Valerie 1 Bass Tabs

Amy Winehouse - Valerie 1 chords, tabs, tablatures, lyrics

Guitar lessons | Add/correct | Request | Top 50 tabs Artists:  A B C D E F G H I J K L M N O P Q R S T U V W X Y Z 0-9

Valerie 1 Bass Tabs – Amy Winehouse

CD, Sheet music, Poster

Do you like Valerie 1? Share with your friends now
Bass TabsBass Tabs v2Bass Tabs v3ChordsChords v2Chords v3Chords v4Chords v5Chords v6Chords v7Chords v8TabsUkulele
Tuning: EADG

This is the up-beat version by Mark Ronson.

The song needs to be in the key of E for this tab to work, so you won't have to drop to E#

Bass begins immediately with the drums.

Intro

G|----------------|----------------|
D|----------------|----------------|
A|----------------|----------------|
E|-0--00-00---00-0|-0--00-00---00-0|

Verse

G|----------------|----------------|----------------|----------------|
D|----------------|----------------|----------------|----------------|
A|----------------|----------------|----------------|----------------|
E|-0--00-00---00-0|-0--00-00---00-0|-2--22-22---22-2|-2--22-22---22-2|

Do this twice before the pre-chorus...

G|----------------|----------------|----------------|----------------|
D|----------------|----------------|----------------|----------------|
A|0---0---0---0---|0---0---0---0---|----------------|----------------|
E|----------------|----------------|4---4---4---4---|4---4---4---4---|

Do this three times then...

G|----------------|----------------|
D|----------------|----------------|
A|2---2---2---2---|2---2---2---2/--|

(14-14-14 not 1-4-1-4-1-4) octave jump and speed up to 8ths

G|------------------------|----------------------------|
D|------------------------|----------------------------|
A|14-14-14-14-14-14-14-14-|14-12-14-12-----------------|
E|------------------------|------------14-13-12-10--/0-|

Repeat the verse until "...and in my head I make a picture."

Then back into the pre-chorus at "Since I've come on home..."

After that second chorus the first verse repeats on till one last pre-chorus then repeat 
the verse riff until the end.

My first tab guys, please rate :)





Comments


Popular Amy Winehouse tabs & chords
Back To Black Bass Tabs
Valery 2 Bass Tabs
Procrastination Chords
Take The Box Chords
Valerie 4 Chords
You Should Be Stronger Than Me Chords
Love Is A Losing Game 1 Tabs
Fools Gold Ukulele
In My Bed Ukulele
You Know Im No Good Ukulele


Song lyrics



↑ Back to top | Tablatures and chords are parodies/interpretations of the original songs. You may use it for private study, scholarship, research or language learning purposes only
© 2014 AZChords.com Contact us | Privacy policy | DMCA | Add/correct tabs | Request tabs | Top 50 tabs