» » »

Some Unholy War Bass tabs (ver.1)

Artists:  A B C D E F G H I J K L M N O P Q R S T U V W X Y Z # 

Some Unholy War Bass tabs (ver.1)

Amy Winehouse
Rating:
0/5 (0 votes)

Hard to play? Try these video lessons and learn fast.
                (Intro)
			Some Unholy War - Amy Winehouse
----------------------------------------------------------------------------
INTRO:

G|------------------------|----------------(5)-|
D|-7----7-7-6-5-----------|-7----7-7-6-5-------|
A|----7---------5-8-5-7-5-|----7---------5-----|
E|------------------------|--------------------|

or

G|------------------------|----------------(5)-|
D|------------------------|--------------------|
A|--------------5-8-5-7-5-|---------------5----|
E|-5--0-5-5-4-3-----------|-5--0-5-5-4-3-------|
            
Hard to play? Try these video lessons and learn fast. | Correct




comments powered by Disqus
↑ Back to top | Tablatures and chords are parodies/interpretations of the original songs. You may use it for private study, scholarship, research or language learning purposes only