» » »

Cherry Bass tabs (ver.1)

Artists:  A B C D E F G H I J K L M N O P Q R S T U V W X Y Z # 

Cherry Bass tabs (ver.1)

Amy Winehouse
Rating:
0/5 (0 votes)

Hard to play? Try these video lessons and learn fast.
                Amy Winehouse
Version dvd live in London


Couplet

     Dmaj7                     E9                        
G||-------------------------|--------------------------|
D||-------------------------|--------------------------|
A||--5--5------5----5---5-6-|--7--7-----------7-7--5-6-|
E||-------5-5-----5---5-----|-------7-7--0-------------|

Em9       A7             Dmaj7
|------------------------|---------------------|
|----------------7-7-----|--------------7-7----|
|--7--7---------------7--|--5--5------5--------|
|-------7-7--5-----------|-------5-5---------5-|


  Dmaj7                     E9                   
-------------------------|------------------------|
-------------------------|------------------------|
--5--5------5----5---5-6-|--7--7-----------7--5-6-|
-------5-5-----5---5-----|-------7-7--0--0--------|

   Em9       A7           Dmaj7
|----------------------|----------------------------|
|---------------7-7----|----------------------------|
|--7--7--------------7-|--5--5-------5------5-------|
|-------7-7--5---------|--------5-5-----5-7---7-5-7-|

Refrain

    Em9        A7              Dmaj7
|---------------------------|-----------------------------|
|*------------------7-7-----|--------------------7-7-----*| 8X
|*--7---7----------------7--|--5-----5------5------------*|
|---------7-7--5------------|----------5-5------------5---|


Final

     Em                         Dmaj7                          Em                       Dmaj7
G||--------------------------|------------------------------|------------------------|-------|
D||------------------7-7-----|-------------------7-8-9------|------------------------|-------|
A||--7---7----------------7--|--5-----5-7-7--9---------7-0--|--7---7-----------------|--5----|
E||--------7-7--5------------|------------------------------|--------7-7--5------5---|-------|
            
Hard to play? Try these video lessons and learn fast. | Correct




comments powered by Disqus
↑ Back to top | Tablatures and chords are parodies/interpretations of the original songs. You may use it for private study, scholarship, research or language learning purposes only