» » »

Amy Winehouse, Back To Black Bass tabs (ver.3)

Artists:  A B C D E F G H I J K L M N O P Q R S T U V W X Y Z # 

Back To Black Bass tabs (ver.3)

Amy Winehouse Tabs
 Rating:
4/5 (4 votes)
Back To Black lessons Tabs too difficult? Try these video lessons and learn fast
                Back To Black.btab
Amy Winehouse
TablEdited by Poppamies

 Tempo 124       |       |        |       |       |       |        
|--------------------------------|--------------------------------|
|0-----------0---0---------------|0-----------0-------------------|
|--------------------------------|--------------------3-----------|
|--------------------------------|--------------------------------|
 
 |       |       |       |        |       |       |       |        
|--------------------------------|--------------------------------|
|--------------------------------|--------------------------------|
|--------------------------------|----------------------------0---|
|3-----------3---3---------------|3-----------3-------4---4-------|
 
 |       |       |       |        |       |       |       |        
|--------------------------------|--------------------------------|
|--------------------------------|--------------------------------|
|1-----------1---1---------------|1-----------1---------------1---|
|--------------------------------|--------------------1---1-------|
 
 |       |       |       |        |       |       |       |        
|--------------------------------|--------------------------------|
|--------------------------------|--------------------------------|
|0-----------0---0---------------|0-----------0-------3---3---4---|
|--------------------------------|--------------------------------|
 
 |       |       |       |        |       |       |       |        
|--------------------------------|--------------------------------|
|0-----------0---0---------------|0-----------0-------------------|
|--------------------------------|--------------------3-----------|
|--------------------------------|--------------------------------|
 
 |       |       |       |        |       |       |       |        
|--------------------------------|--------------------------------|
|--------------------------------|--------------------------------|
|--------------------------------|--------------------------------|
|3-----------3---3---------------|--------------------------------|
 
 turnaround      |       |        |       |       |       |        
|--------------------------------|--------------------------------|
|--------------------------------|--------------------------------|
|1---------------1---------------|1-----------1-------1-----------|
|------------1-------------------|--------------------------------|
 
 |       |       |       |        |       |       |       |        
|--------------------------------|2-------0-----------------------|
|----------------------------2---|----------------3-------2-------|
|0-----------0---0---------------|--------------------------------|
|--------------------------------|--------------------------------|
 
 |       |       |       |        
|--------------------------------|
|0-----------0---0---------------|
|--------------------------------|
|--------------------------------|
 
            
Submit corrections

comments powered by Disqus
↑ Back to top | Amy Winehouse Bass for Back To Black. Lyrics for acoustic guitar and electric guitar. Tablatures and chords are parodies/interpretations of the original songs. You may use it for private study, scholarship, research or language learning purposes only