» » »

Amy Winehouse, Back To Black Bass tabs (ver.2)

Artists:  A B C D E F G H I J K L M N O P Q R S T U V W X Y Z # 

Back To Black Bass tabs (ver.2)

Amy Winehouse Tabs
 Rating:
4/5 (4 votes)
Back To Black lessons Tabs too difficult? Try these video lessons and learn fast
1
                                          Back to black- live version        Amy Winehouse

      D                                               G                      
G||------------------------|-----------------------|------------------------|
D||*--0---------0--0-------|--0---------0----------|------------------------|
A||*-----------------------|------------------3----|------------------------|
E||------------------------|-----------------------|--3---------3--3-----3--|


                          A#                                              
 -----------------------|------------------------|--3------------3--2----|
-----------------------|------------------------|------------------------|
---------------0--1----|--1---------1--1-----1--|-------1----------------|
-------3----3----------|------------------------|------------------------|


     A                         D                      D                    
  --2--2-----2--2-----2------||----------------------|--------------------|
-----------------------2--*||--0---------0----0----|-------0---------0----|
--------------------------*||----------------------|----------------------|
---------------------------||----------------------|----------------------|


                         A#                                          

----------------------|----------------------|----------------------|
--0-------------------|----------------------|----------------------|
------------1---------|--1----1---------1----|-------1----1---------|
----------------------|----------------------|----------------------|


  F                      A                       A                    
 
----------------------|-----------------------|--2---------2----2----|
--3---------3----3----|-------3---------3--3--|----------------------|
----------------------|-----------------------|----------------------|
----------------------|-----------------------|----------------------|


                         D                      D                    
     
--2---------2----2----|----------------------|----------------------|
----------------------|--0---------0----0----|-------0---------0----|
----------------------|----------------------|----------------------|
----------------------|----------------------|----------------------|


                         A#                                          
     
----------------------|----------------------|----------------------|
--0-------------------|----------------------|----------------------|
------------1---------|--1----1---------1----|-------1----1---------|
----------------------|----------------------|----------------------|


  chromatisme                   F                                           
     
-----------------------------|----------------------|----------------------|
--------------0----1----2----|--3---------3----3----|--3---------3----3----|
-----------------------------|----------------------|----------------------|
-----------------------------|----------------------|----------------------|


  A                       A                                           
  
-----------------------|--2---------2----2----|----------------------|
-------3---------3--3--|----------------------|--2-------------------|
-----------------------|----------------------|------------0----0----|
-----------------------|----------------------|----------------------|


   
----------------------||
----------------------||
-------0---------0----||
----------------------||
            
Submit corrections

comments powered by Disqus
↑ Back to top | Amy Winehouse Bass for Back To Black. Lyrics for acoustic guitar and electric guitar. 1 Tablatures and chords are parodies/interpretations of the original songs. You may use it for private study, scholarship, research or language learning purposes only