» » »

Am Taxi, Woodpecker Tabs (ver.1)

Artists:  A B C D E F G H I J K L M N O P Q R S T U V W X Y Z # 

Woodpecker Tabs (ver.1)

Am Taxi Tabs
 Rating:
4/5 (4 votes)
Woodpecker lessons Tabs too difficult? Try these video lessons and learn fast
1
                ----------------------------------------------------------------------------
----------------------------------------------------------------------------

Tuning: Standard (EADGBe)



Intro  (x2)
e|-----------------------|
B|-----------------------|
G|--10---9----7----------|
D|--10---10---7---8------|
A|--8----7----5---8------|
E|----------------6------|




the lick at 0:34
B|-------------|
G|----------10-|
D|--8-10-8-----|
A|-------------|



0:36-0:45
e|-----------------------------|
B|-----------------------------|
G|--10--10----5--5---7--7------|
D|--10--10----5--5---7--7---8--|
A|--8---8-----3--3---5--5---8--|
E|--------------------------6--|



0:46-1:03
e|------------------------------------------------|
B|------------------------------------------------|
G|--10---9----7---5-------10---9----7---5------10-|
D|--10---10---7---5-------10---10---7---5------10-|
A|--8----7----5---3-------8----7----5---3------8--|
E|------------------------------------------------|



1:05-1:21
e|------------------------------------------------------------|
B|-----1------1------1----5-6--------1------1------1----5-6---|
G|------------------------------------------------------------|
D|---3------2------0---------------3------2------0------------|
A|------------------------------------------------------------|
E|------------------------------------------------------------|


1:22-1:38
e|---------------------------------------|
B|---------------------------------------|
G|--10---9----7---------10--9-----7---5--|
D|--10---10---7---8-----10--10----7---5--|
A|--8----7----5---8-----8---7-----5---3--|
E|----------------6----------------------|



1:46-1:54
e|----------15-13-----------15-13----------15-13-----------13-12----|
B|-----13---------------13--------------13-----------------------13-|
G|-------------------15-----------------------------14-12-----------|
D|--15-------------------------------15-----------------------------|
A|------------------------------------------------------------------|
E|------------------------------------------------------------------|


1:55-2:11
e|-----------------------|
B|-----------------------|
G|--10---9----7----------|
D|--10---10---7---8------| x2
A|--8----7----5---8------|
E|----------------6------|



2:11-2:22
e|------------------------------------------------------------|
B|------------------------------------------------------------|
G|--7---5---3----------7---5---3----------7---5---5---3---5---|
D|--7---5---3---3------7---5---3---3------7---5---5---3---5---|
A|--5---3---1---3------5---3---1---3------5---3---x---5---3---|
E|--------------1------------------1--------------5---3-------|



2:24-2:34
e|------------------------------------------------------------|
B|------------------------------------------------------------|
G|--7---5---3----------7---5---3----------7---5---5---3---5---|
D|--7---5---3---3------7---5---3---3------7---5---5---3---5---|
A|--5---3---1---3------5---3---1---3------5---3---x---5---3---|
E|--------------1------------------1--------------5---3-------|



2:37-2:54
e|--13-13xx13x13x13-13xx--13-13xx13x13x13-13xx--|
B|----------------------------------------------|
G|--10-10xx10x10x10-10xx--10-10xx10x10x10-10xx--|
D|----------------------------------------------|

e|--13-13xx13x13x13-12xx--12-12xx12x12x12-13xx--|
B|----------------------------------------------|
G|--10-10xx10x10x10-10xx--10-10xx10x10x10-10xx--|
D|----------------------------------------------|

e|--13-13xx13x13x13-13xx--13-13xx13x13x13-13xx--|
B|----------------------------------------------|
G|--10-10xx10x10x10-10xx--10-10xx10x10x10-10xx--|
D|----------------------------------------------|

e|--13-13xx13x13x13-12xx--12-12xx12x12x12-13xx--|
B|----------------------------------------------|
G|--10-10xx10x10x10-10xx--10-10xx10x10x10-10xx--|
D|----------------------------------------------|


well thats it.
the rest of the chords are the same as earlier in the song

please rate, thanks.



************************************

| /   slide up
| \   slide down
| h   hammer-on
| p   pull-off
| ~   vibrato
| +   harmonic
| x   Mute note
| b   Bend
| pb  Pre-bend
| br  Bend release
| pbr Pre-bend release
| brb Bend release bend

************************************
            
Submit corrections

comments powered by Disqus
↑ Back to top | Am Taxi Tabs for Woodpecker. Lyrics for acoustic guitar and electric guitar. 1 Tablatures and chords are parodies/interpretations of the original songs. You may use it for private study, scholarship, research or language learning purposes only