» » »

Maydays And Roaseries Tabs (ver.1)

Artists:  A B C D E F G H I J K L M N O P Q R S T U V W X Y Z # 

Maydays And Roaseries Tabs (ver.1)

Am Taxi
Rating:
0/5 (0 votes)

Hard to play? Try these video lessons and learn fast.
                Intro and played through the first verse with male singer

e  |---------------------------0--------4------------------------5-|
B  |------4-h5-p4-----4-------0-0---------5-----4-h5-p4-----4----5-|
G  |------4-h6-p4-------4----1------------------4-h6-p4-------4--6-|
D  |----6------------4------2---------7--------6----------4------7-|
A  |-4-------------2----------------0--------4----------2--------7-|
E  |------------------------------4------------------------------5-|

0:45

|----------------------0--------------------------------5-|
|-----5-------4----------0-----------------5-------4----5-|
|-------6-------4-----1----------6-----------6-------4--6-|
|---6--------4------2--------------7-----6-------4------7-|
|-4--------2-------------------7------4--------2--------7-|
|----------------------------5--------------------------5-|

0:56 - Reggae style strumming

C#min       B                             E    A     C#min      B                       A
I've been safe, safe as I can be.         I keep calm and out of reach

C#min     B                        E                           A    C#min       B       A   
I don't think about you that much anyway,   I wouldn't even know what to say.

1:18

A                                            B                                            C# 
That don't mean that you shouldn't call if you feel like it at all.

                                     E                                        A            B 
I'd love to hear your voice, love to hear your voice.  Lights are off and he's not around
                                  
                                        C#                                        E   A       B
do you think of me at all?   I'd love to hear your voice, love to hear your voice.
            
Hard to play? Try these video lessons and learn fast. | Correct




comments powered by Disqus
↑ Back to top | Tablatures and chords are parodies/interpretations of the original songs. You may use it for private study, scholarship, research or language learning purposes only