» » »

Am Taxi, Maps And Medicine Tabs (ver.1)

Artists:  A B C D E F G H I J K L M N O P Q R S T U V W X Y Z # 

Maps And Medicine Tabs (ver.1)

Am Taxi Tabs
 Rating:
4/5 (4 votes)
Maps And Medicine lessons Tabs too difficult? Try these video lessons and learn fast
                ----------------------------------------------------------------------------
                     Maps And Medicine - AMerican Taxi
----------------------------------------------------------------------------

Tuning: Standard (EADGBe)

i think i got this perfect
please rate, thanks


0:00-0:06
Guitar 1
e|------------------------------------|
B|------7--------11-------------------|
G|-----------------------10-----------|x1
D|----8-------11-------11-------------|
A|--6-------9------------------9------|
E|-------------------9-------7--------|
This first time it's played quiter.



0:06-0:17
e|------------------------------------|
B|------7-------11--------------------|
G|-----------------------10-------8---| x2
D|----8-------11-------11-------------|
A|--6-------9-------------------------|
E|-------------------9-------9\7------|
Played twice before singing begins.



0:17-0:40
Guitar 1
e|------------------------------------|
B|------7-------11--------------------|
G|-----------------------10-------8---| x4
D|----8-------11-------11-------------|
A|--6-------9-------------------9-----|
E|-------------------9--------7-------|

Guitar 2
e|---------------------------------|
B|---------------------------------|
G|---------------------------------|x4
D|--8---11-----------8---11--------|   
A|--6---9---11---9---6---9--11--9--|muted
E|----------9----7----------9---7--|



(BASS ENTERS)
Guitar 1
0:40-0:51
E|-----------------------------------|
B|------7-------11-------11----------|
G|-------------------------------11--|x2
D|----8-------11-------11------------|
A|--6-------9------------------------|
E|-------------------9-------9\7-----|



0:51-1:03
Guitar 2
e|---------------------------------|
B|---------------------------------|
G|---------------------------------|x2
D|--8---11-----------8---11--------|   
A|--6---9---11---9---6---9--11--9--|muted
E|----------9----7----------9---7--|



Chorus part 1
1:03-1:15
Guitar 1 and 2 together the first time
e|--------------------------------|
B|--------------------------------|
G|-------4---8---4-------4--8--6--|x1
D|---4---4---8---4---4---4--8--6--|
A|---4---2---6---2---4---2--6--4--|
E|---2---------------2------------|


Chorus part 2
1:15-1:25
Guitar 1
e|---------------------------|
B|---------------------------|
G|-------4---8---4-------4---|x1
D|---4---4---8---4---4---4---|
A|---4---2---6---2---4---2---|
E|---2---------------2-------|

Guitar 2
e|--------------------------------|
B|--------------------------------|
G|-----11-11-10--11--11-11-10-----|x3
D|--------------------------------|
A|---9----------------------------|
E|--------------------------------|



1:25-1:32
Guitar 2
e|---------------------------------|
B|---------------------------------|
G|---------------------------------|x4
D|--8---11-----------8---11--------|   
A|--6---9---11---9---6---9--11--9--|muted
E|----------9----7-----------9--7--|



1:32-1:42
Guitar 1
e|-----------------------------------|
B|------7-------11-------------------|
G|-----------------------10-------8--|x1
D|----8-------11-------11------------|
A|--6-------9-------------------9----|
E|-------------------9--------7------|

E|-----------------------------------|
B|------7-------11-------------------|
G|-----------------------10------11--|x1
D|----8-------11-------11------------|
A|--6-------9------------------9-----|
E|-------------------9-------7-------|



1:42-1:53
Guitar 2
e|---------------------------------|
B|---------------------------------|
G|---------------------------------|x2
D|--8---11-----------8---11--------|   
A|--6---9---11---9---6---9--11--9--|muted
E|----------9----7----------9---7--|



1:53-2:06
Guitar 1
e|------------------------------------|
B|------7-------11--------------------|
G|-----------------------10-------8---| x2
D|----8-------11-------11-------------|
A|--6-------9-------------------------|
E|-------------------9-------9\7------|



2:07-2:29
(Repeat chorus part 1 and 2 that was played at 1:03-1:25)



Bridge
2:29-2:35
Guitar 1
e|----------------------------------|
B|----------------------------------|
G|----------------------------------|
D|--4-4-4----6-6-6----4-4-4---6-6-6-|
A|--4-4-4----6-6-6----4-4-4---6-6-6-|
E|--2-2-2----4-4-4----2-2-2---4-4-4-|

Guitar 2
e|----------------------------------|
B|--------------12p10-0-------------|
G|----------------------------------|
These 3 notes are played once as the singer says "beating back" 



2:35-2:42
Guitar 1
e|--6-------------------6-----------|
B|--7-------------------7-----------|
G|--8-------------------8-----------|
D|--8-------------------8-----------|
A|--6-------------------6-----------|
E|----------------------------------|

Guitar 2
e|------------------------------------|
B|------------------------------------|
G|--11-11-10--11-11-10--11-11-10-11\--|
D|------------------------------------|



2:42-3:10
Guitar 1
e|-------------|      and on the 7th time-|
B|-------------|      --------------------|
G|-------------|x6    -88-88-88-88-8888-4-|
D|----4-----4--|      -88-88-88-88-8888-4-|
A|-4--2--4--2--|muted -66-66-66-66-6666-2-|
E|-2-----1-----|      --------------------|

Guitar 2
e|--------------------------------|
B|--11-11-10-11---11-11-10-6------|
G|--------------------------------|x6
D|--------------------------------|
A|--------------------------------|
E|--------------------------------|
(Doesnt play 1st time)



Chorus(different this time)
3:10-3:32
Guitar 1
e|--------------------------------|
B|--------------------------------|
G|-------4---8---4-------4--8--6--|x1
D|---4---4---8---4---4---4--8--6--|
A|---4---2---6---2---4---2--6--4--|
E|---2---------------2------------|
then...
e|--------------------------|
B|--------------------------|
G|-------4---8---4-------8--|x1
D|---4---4---8---4---4---8--|
A|---4---2---6---2---4---6--|
E|---2---------------2------|

Guitar 2
e|----------------------------|
B|--11-11-10-11---11-11-10-6--|x2
G|----------------------------|

e|----------------------------------------------|
B|--11-11-10-11---11-11-10---6-6-11-10-11-10--11|x1
G|----------------------------------------------|

e|-----------------------------|
B|--11-11-10-11---11-11-10-(6)-|x3
G|-----------------------------|
Dont play the 6 on the last time



3:32-3:45
Guitar 1
e|----------------------------------|
B|----------------------------------|
G|----------------------------------|x2
D|--4-4-4----6-6-6----4-4-4---6-6-6-|
A|--4-4-4----6-6-6----4-4-4---6-6-6-|
E|--2-2-2----4-4-4----2-2-2---4-4-4-|
Keep strumming chords on 2nd time

Guitar 2
e|----------------------------------|
B|--------------12p10-0-------------|x2
G|----------------------------------|
once again, played as the singer says "beating back" 



End
3:45-3:52
Guitar 1
e|------------|
B|------------|
G|-8-88--6-8\-|
D|-8-88--6-8\-|
A|-6-66--4-6\-|
E|------------|

Guitar 2
e|------------------|
B|-11--11-11--9-11\-|
G|------------------|



| /  slide up
| \  slide down
| h  hammer-on
| p  pull-off
| ~  vibrato
| +  harmonic
| x  Mute note
============================================================================
            
Submit corrections

comments powered by Disqus
↑ Back to top | Am Taxi Tabs for Maps And Medicine. Lyrics for acoustic guitar and electric guitar. Tablatures and chords are parodies/interpretations of the original songs. You may use it for private study, scholarship, research or language learning purposes only