» » »

Am Taxi, Fed Up Tabs (ver.1)

Artists:  A B C D E F G H I J K L M N O P Q R S T U V W X Y Z # 

Fed Up Tabs (ver.1)

Am Taxi Tabs
 Rating:
4.2/5 (5 votes)
Fed Up lessons Tabs too difficult? Try these video lessons and learn fast
                -----------------------------------------------------------------------------
-----------------------------------------------------------------------------

Tuning: !!!!PLEASE NOTE!!!!
Guitar 1: Standard (EADGBe)  - Adam Krier
Guitar 2: C Country (EADGCe) - Johnny Don't

AM Taxi
The Good The Bad and The Fed Up

All of the timing and rhythm is not exactly charted so it will require some
thought and listening to the song.
The time indicators are also off the album 'The Good The Bad and The Fed Up'

It's a great song song so enjoy and please critique and show me any errors.

Intro pt.1 x2 (rhythm is easier when listened to)
Guitar 1:
e|---------------------------------------------------------------------|
B|---------------------------------------------------------------------|
G|-------------------------------------------------10---------10-------|
D|--10-10-10---9---9---9---10-10-10---9---9---9----10----7--9--x-------|
A|--10-10-10--10--10--10---10-10-10--10--10--10-----8----x--x--8-------|
E|---8--8--8---8---8---8----8--8--8---8---8---8----------5--7----------|

Guitar 2: (only plays second time)
e|--(0)(0)(0)-(0)-(0)-(0)-(0)(0)(0)-(0)-(0)-(0)--------|
C|--(0)(0)(0)-(0)-(0)-(0)-(0)(0)(0)-(0)-(0)-(0)--------|
G|---5--5--5---4---4---4---5--5--5---4---4---4---------|
D|---5--5--5---5---5---5---5--5--5---5---5---5---3-----|
A|---3--3--3---3---3---3---3--3--3---3---3---3---3-----|
E|---3--3--3---3---3---3---3--3--3---3---3---3---1-----|


Intro pt.2 x1 - 0:11
Guitar 1:
e|-------------------------------------------------------------------|
B|-------------------------------------------------------------------|
G|-------------------------------------------------10----------------|
D|--10-10-10---9---9---9---10-10-10---9---9---9----10---7--5--3------|
A|--10-10-10--10--10--10---10-10-10--10--10--10-----8----------------|
E|---8--8--8---8---8---8----8--8--8---8---8---8----------------------|

Guitar 2: 
e|--(0)(0)(0)-(0)-(0)-(0)-(0)(0)(0)-(0)-(0)-(0)--------|
C|--(0)(0)(0)-(0)-(0)-(0)-(0)(0)(0)-(0)-(0)-(0)--------|
G|---5--5--5---4---4---4---5--5--5---4---4---4---------|
D|---5--5--5---5---5---5---5--5--5---5---5---5---3-----|
A|---3--3--3---3---3---3---3--3--3---3---3---3---3-----|
E|---3--3--3---3---3---3---3--3--3---3---3---3---1-----|


verse 1 pt.1 - 0:17
Guitar 1:
e|--------------------------------|
B|--------------------------------|
G|---5---5---5---5---5---4---2----|
D|--2---2---2---2---5---5---3-----|
A|-3---3---0---0---5---5---3------|
E|--------------------------------|

verse 1 pt. 2 (palm mute) - 0:28
Guitar 1:
e|-------------------------------------------------------------------------|
B|-------------------------------------------------------------------------|
G|-------------------------------------------------------------------------|
D|-10-1010101010101010101010101010--7-777777777777777--5-555555555555555---|
A|-10-1010101010101010101010101010--7-777777777777777--5-555555555555555---|
E|--8--8-8-8-8-8-8-8-8-8-8-8-8-8-8--5-555555555555555--3-333333333333333---|
       . . . . . . . . . . . . . .    ...............    ...............

e|---------------------|
B|---------------------|
G|---------------------|
D|-3-333333333333333---|
A|-3-333333333333333---|
E|-1-111111111111111---|
     ...............

verse 1 pt.3 (no palm mute) - 0:38
Guitar 1 & 2:
e|----------------------------------------------------------------------|
B|----------------------------------------------------------------------|
G|----------------------------------------------------------------------|
D|-101010101010101010101010101010--7777777777777777--5555555555555555---|
A|-101010101010101010101010101010--7777777777777777--5555555555555555---|
E|--8-8-8-8-8-8-8-8-8-8-8-8-8-8-8--5555555555555555--3333333333333333---|

e|---------------------|
B|---------------------|
G|---------------------|
D|-3333333333333333----|
A|-3333333333333333----|
E|-1111111111111111----|

Pre-chorus (softly) - 0:50
Guitar 1:
e|-------------------------------------------------------------|
B|-------------------------------------------------------------|
G|-------------------------------------------------------------|
D|-------------------------------------------------------------|
A|-------------------------------------------------------------|
E|---1--------5--------3----------------1--------5--------3----|

Chorus x2 - 1:01
Guitar 1:
e|-------------------------------------------------------------------------|
B|-------------------------------------------------------------------------|
G|---5555555555555555------------------------------------------------------|
D|---5555555555555555-3333333333333333-7777777777777777-3333333333333333---|
A|---3333333333333333-3333333333333333-7777777777777777-3333333333333333---|
E|--------------------1111111111111111-5555555555555555-1111111111111111---|

Guitar 2: 
e|--(0)(0)(0)(0)(0)(0)(0)(0)(0)(0)(0)(0)(0)(0)(0)(0)--|
C|--(0)(0)(0)(0)(0)(0)(0)(0)(0)(0)(0)(0)(0)(0)(0)(0)--|
G|---5--5--5--5--5--5--5--5--5--5--5--5--5--5--5--5---|
D|---5--5--5--5--5--5--5--5--5--5--5--5--5--5--5--5---|
A|---3--3--3--3--3--3--3--3--3--3--3--3--3--3--3--3---|
E|---3--3--3--3--3--3--3--3--3--3--3--3--3--3--3--3---|

e|--------------------------------------------------------|
B|--------------------------------------------------------|
G|--------------------------------------------------------|
D|---3333333333333333-7777777777777777-3333333333333333---|
A|---3333333333333333-7777777777777777-3333333333333333---|
E|---1111111111111111-5555555555555555-1111111111111111---|



Bridge 1 (During the bass riff) - 1:23
e|------------------1----------------------|
B|------------------1----------------------|
G|------------------2----------10-10-------|
D|---3-----3---3----3-----7--9--x--x-------|
A|---3-----3---3----------x--x--8--8-------|
E|---1-----1---1----------5--7-------------|

Verse 2 pt. 1 (palm mute) - 1:28
e|----------------------------------------------------------------------|
B|----------------------------------------------------------------------|
G|----------------------------------------------------------------------|
D|-101010101010101010101010101010--7777777777777777--5555555555555555---|
A|-101010101010101010101010101010--7777777777777777--5555555555555555---|
E|--8-8-8-8-8-8-8-8-8-8-8-8-8-8-8--5555555555555555--3333333333333333---|

e|--------------------|
B|--------------------|
G|--------------------|
D|-333333--33333333---|
A|-333333--33333333---|
E|-111111--11111111---|

Verse 2 pt.2 (no palm mute) - 1:40
e|----------------------------------------------------------------------|
B|----------------------------------------------------------------------|
G|----------------------------------------------------------------------|
D|-101010101010101010101010101010--7777777777777777--5555555555555555---|
A|-101010101010101010101010101010--7777777777777777--5555555555555555---|
E|--8-8-8-8-8-8-8-8-8-8-8-8-8-8-8--5555555555555555--3333333333333333---|

e|---------------------|
B|---------------------|
G|---------------------|
D|-3333333333333333----|
A|-3333333333333333----|
E|-1111111111111111----|

Chorus x1 - 1:50 Guitar 1 & 2:
e|-------------------------------------------------------------------------|
B|-------------------------------------------------------------------------|
G|---5555555555555555------------------------------------------------------|
D|---5555555555555555-3333333333333333-7777777777777777-3333333333333333---|
A|---3333333333333333-3333333333333333-7777777777777777-3333333333333333---|
E|--------------------1111111111111111-5555555555555555-1111111111111111---|

                                        |{Palm mute}|
e|-------------------------------------------------------------------------|
B|-------------------------------------------------------------------------|
G|-5555555555555555--------------------------------------------------------|
D|-5555555555555555-3333333333333333-7777777777777777-33-xx-xx-33-xx-xx-33-|
A|-3333333333333333-3333333333333333-7777777777777777-33-xx-xx-33-xx-xx-33-|
E|------------------1111111111111111-5555555555555555-11-xx-xx-11-xx-xx-11-|


Bridge 2 - 2:16

Guitar 1 - Chords
       F      Am       G (hold)
e|-----1-------5-------3------------|
B|-----1-------5-------3------------|
G|-----2-------5-------4------------|  x6
D|-----3-------7-------5------------|
A|-----3-------7-------5------------|
E|-----1-------5-------3------------|

Guitar 2 (Rest until Guitar 1 goes through the chords twice) - 2:26
e|-------------------------------|
C|--------0-------0--------2-----|
G|------0-------0--------4-------|  x4
D|----3-------2------4h5---------|
A|-------------------------------|
E|-------------------------------|

Here is a Pre-chorus without guitars - 2:48

Then they repeat the Pre-chorus with guitars - 2:59

Guitar 1 - Chords
       F      Am       G (hold)
e|-----1-------5-------3------------|
B|-----1-------5-------3------------|
G|-----2-------5-------4------------|
D|-----3-------7-------5------------|
A|-----3-------7-------5------------|
E|-----1-------5-------3------------|

Guitar 2:
e|--5-5-5--5-5-5--0-0-0------------------|
C|--4-4-4--5-5-5--2-2-2--(0)-------------|
G|--5-5-5--5-5-5--4-4-4--4b5r4b5r4b5r4---|
D|---------------------------------------|
A|---------------------------------------|
E|---------------------------------------|
                        . . . . . . . .
e|--5-5-5--5-5-5--0-0-0-0-0-0-0-0-0-0-0--0---|
C|--4-4-4--5-5-5--2-2-2-2-2-2-2-2-2-2-2--2---|
G|--5-5-5--5-5-5--4-4-4-4-4-4-4-4-4-4-4--4---|
D|-------------------------------------------|
A|-------------------------------------------|
E|-------------------------------------------|

Chorus x2 - 3:10
e|-------------------------------------------------------------------------|
B|-------------------------------------------------------------------------|
G|---5555555555555555------------------------------------------------------|
D|---5555555555555555-3333333333333333-7777777777777777-3333333333333333---|
A|---3333333333333333-3333333333333333-7777777777777777-3333333333333333---|
E|--------------------1111111111111111-5555555555555555-1111111111111111---|

Outro  - 3:30
Guitar 1:
e|-----------------------------------------------------------|
B|-----------------------------------------------------------|
G|---------10------------------------------------------------|
D|---7--9--x---1010-1212-1414-1717-14/15151515-14/15151515---|
A|---x--x--8---x-x--x-x--x-x--x-x--x-/x-x-x-x--x-/x-x-x-x----|
E|---5--7------8-8--1010-1212-1515 12/13131313-12/13131313---|

e|-------------------------------|
B|-------------------------------|
G|-------------------------------|
D|---14141414--12/141414-12-10---|
A|---x-x-x-x---x-/x-x-x--x--x----|
E|---12121212--10/121212-10-8----|

e|-----------------------------------------------------------|
B|-----------------------------------------------------------|
G|---------10------------------------------------------------|
D|---7--9--x---1010-1212-1414-1717-14/15151515-14/15151515---|
A|---x--x--8---x-x--x-x--x-x--x-x--x-/x-x-x-x--x-/x-x-x-x----|
E|---5--7------8-8--1010-1212-1515 12/13131313-12/13131313---|

e|----------------------------------------|
B|----------------------------------------|
G|----------------------------------------|
D|---15-15-1515/14--14-14-1414/12-12-10---|
A|---x--x--x-x-/x---x--x--x-x-/x--x-------|
E|---13-13-1313/12--12-12-1212/10-10-8----|

Guitar 2:
e|----------------------------------------------------|
C|--------------------------9-7-5--------------7------|
G|--7--5-5--9-7--9-7-12-9----------9--7-7----7--------|
D|----------------------------------------10----------|
A|----------------------------------------------------|
E|----------------------------------------------------|

3:40
e|--------------------------------------|
C|--------------------------------------|
G|-----7-5--7-5--7-5--7-5--7--5-7-9-----|
D|--------------------------------------|
A|--------------------------------------|
E|--------------------------------------|

3:43
e|----------------------------------------------|
C|----------------------------7---7---7---9-9~--|
G|--7--5-5-5h7/9-7--9-7-12-9----9---9---9-------|
D|----------------------------------------------|
A|----------------------------------------------|
E|----------------------------------------------|

3:51 Guitar 2:
e|-----8------12------15-----|
C|-----5------9-------12-----|
G|-----5------9-------12-----|
D|---------------------------|
A|---------------------------|
E|---------------------------|

Please rate and continue to listen to AM Taxi. Great stuff, very talented.
Please e-mail with any corrections or errors especially with the outro.


| /  slide up
| \  slide down
| h  hammer-on
| p  pull-off
| ~  vibrato
| +  harmonic
| x  mute note
| b  bend
| r  release bend
=============================================================================
            
Submit corrections

comments powered by Disqus
↑ Back to top | Am Taxi Tabs for Fed Up. Lyrics for acoustic guitar and electric guitar. Tablatures and chords are parodies/interpretations of the original songs. You may use it for private study, scholarship, research or language learning purposes only