» » »

Am Taxi, Dead Street Tabs (ver.1)

Artists:  A B C D E F G H I J K L M N O P Q R S T U V W X Y Z # 

Dead Street Tabs (ver.1)

Am Taxi Tabs
 Rating:
4/5 (4 votes)
Dead Street lessons Tabs too difficult? Try these video lessons and learn fast
                ----------------------------------------------------------------------------
----------------------------------------------------------------------------

Tuning: Standard (EADGBe)




Intro   x4
e|----------------------------|
B|----------------------------|
G|---9---9-9------------------|
D|---9---9-9------------------|
A|---7---7-7---7--(x14)--------|
E|---0---0-0---0--(x14)--------|
P.M.           .



e|--------------------------------------------------------------------|
B|--------------------------------------------------------------------|
G|---9----------------------------------------------------------------|
D|---9------------------4--------4(x8)--2---------------8-------8(x8)-|
A|---7--7(x6)--7(x8)----4--------4(x8)--2--0(x6)-0(x8)----0(x6)-0(x8)-|
E|---0--0(x6)--7(x8)----2--2(x6)--------0--------5(x8)----------------|
P.M.    .      .           .     .         .     .        .     .


e|-----------------------------------------------------------|
B|-----------------------------------------------------------|
G|---9-------------------------------------------------------|
D|---9------------------4--------4(x8)--2-----------------4--|
A|---7--7(x6)--7(x8)----4--------4(x8)--2--0(x6)-0(x8)----4--|
E|---0--0(x6)--7(x8)----2--2(x6)--------0--------5(x8)----2--|
P.M.    .      .           .     .         .     .      




e|--------------------------------------------|
B|---6---9--5----------------9--9-9-9--7--9---|
G|---6---9--6----4-----------9--9-9-9--7--9---|
D|---6---9--6----4--4(x14)---9--9-9-9--7--9---|
A|---4---7--4----2--2(x14)---7--7-7-7--7--7---|
E|--------------------------------------------|
P.M.                .




e|-----------------------------|
B|-----------------------------|
G|--6--9--4-----6--9--4/6--4---|
D|--6--9--4-----6--9--4/6--4---| x2
A|--4--7--2-----4--7--2/4--2---|
E|-----------------------------|
    "Everybody knows..."



e|----------------------|
B|----------------------|
G|--6--9--4----6--9--4--|
D|--6--9--4----6--9--4--|
A|--4--7--2----4--7--2--|
E|----------------------|
    "In our wildest dreams..."






(1:30)
guitar 2
e|---------------------------------------------------------------|
B|---------------------------------------------------------------|
G|--13-11--8h9p8-----14-13--9x9----------------------------------|
D|----------------------------------11-9--6h7p6-----11-9--7-6-7+-|
A|---------------------------------------------------------------|
E|---------------------------------------------------------------|

e|-------------------------------------------------------------|
B|-------------------------------------------------------------|
G|--9--8--8h9p8-----10-8--9x9~----------------------------9--9-|
D|--9--9--------------------------11-9--6h7p6-----11-9----9--9-|
A|--7-----------------------------------------------------7--7-|
E|-------------------------------------------------------------|




e|---------------------------------|
B|--9------------------------------|
G|--9---9--6------4----9-----------|
D|--9---9--6------4----9-----------|
A|------7--4------2----7-----------|
E|---------------------0-----------|



thats basically it, the rest of the song is
repeats and small variations of the other parts.

************************************

| /   slide up
| \   slide down
| h   hammer-on
| p   pull-off
| ~   vibrato
| +   harmonic
| x   Mute note
| b   Bend
| pb  Pre-bend
| br  Bend release
| pbr Pre-bend release
| brb Bend release bend

************************************
            
Submit corrections

comments powered by Disqus
↑ Back to top | Am Taxi Tabs for Dead Street. Lyrics for acoustic guitar and electric guitar. Tablatures and chords are parodies/interpretations of the original songs. You may use it for private study, scholarship, research or language learning purposes only