» » »

Am Taxi, Champagne Toast Tabs (ver.1)

Artists:  A B C D E F G H I J K L M N O P Q R S T U V W X Y Z # 

Champagne Toast Tabs (ver.1)

Am Taxi Tabs
Rating:
5/5 (1 vote)
Champagne Toast lessons Tabs too difficult? Try these video lessons and learn fast
                (Intro)
Verse 1 Champagne Toast by AM Taxi.  Rest of song comming soon!

e|-----------------------------1-|
B|--------1-----1--------------1-|
G|----------2-2---2------------2-|
D|-----2------3-----2----------3-|
A|-3-2-0------------3--0-2-3---3-|
E|---------------------------0-1-|

e|-----------------------------1-1-|
B|--------1-----1--------------1---|
G|----------2-2---2------------2-2-|
D|-----2------3-----2----------3---|
A|-3-2-0------------3--0-2-3---3---|
E|---------------------------0-1---|

e|---------------------------------|
B|--------1-----0----1----1p0----0-|
G|----------2----0--2-2-----------0|
D|-----2-------2---3-----0------0--|
A|-3-2-0---------------------------|
E|------------0---------3------3---|

e|-----------------------------1-1|
B|--------1-----1--------------1--|
G|----------2-2---2------------2-2|
D|-----2------3-----2----------3--|
A|-3-2-0------------3--0-2-3---3--|
E|---------------------------0-1--|

e|----------------------3-|
B|--------1-----0----1--3-|
G|----------2----0--2-2-0-|
D|-----2-------2---3----0-|
A|-3-2-0----------------2-|
E|------------0---------3-|
            

comments powered by Disqus
↑ Back to top | Am Taxi Tabs for Champagne Toast. Lyrics for acoustic guitar and electric guitar. Tablatures and chords are parodies/interpretations of the original songs. You may use it for private study, scholarship, research or language learning purposes only