» » »

We Beleive Tabs (ver.1)

Artists:  A B C D E F G H I J K L M N O P Q R S T U V W X Y Z # 

We Beleive Tabs (ver.1)

American Head Charge
Rating:
0/5 (0 votes)

Hard to play? Try these video lessons and learn fast.
                Tuning: low 3 strings D down 2 steps, 3 high strings down 1/2 step. 
(A#,F,A#,Gb,Bb,Eb)(i think) (Low to High)


<> natural harmonics
p  pull off
h  hammer on
b  bend
)  tremelo pick while sliding
/  slide up
\  slide down
... Keep playing until you think you should stop and move on.
o
o Repeat signs.
pm  palm mute


Note: Check out the odd tuning.  I have this setup for a 6-string, but it is probably played on a
7-string.  I don't have a 7-string so I came up with this odd tuning.  You can't just drop all your
stings down because you need the Harmonic part in riff 2, and it changes if you down tune.

Intro
GTR 1
|-----------------|
|-----------------|
|-----------------|
|-----------------|
|-6h7-6h7-6h7-6h7-|
|-6h7-6h7-6h7-6h7-|

Bass fills for guitar.
(something like this)
|-------|--------|-------------|
|-------|--------|-------------|
|-------|--------|-------------|
|-------|--------|-------------|
|-------|--------|-------------|
|-10-10-|-10-10b-|-10-12b14r12-|

Riff 1
|------------------|
|------------------|
|------------------|
|-5-7-7-5-5-7-8-10-|
|-5-7-7-5-5-7-8-10-|
|-5-7-7-5-5-7-8-10-|

Riff 2
GTR 1
|-------------|
|-------------|
|-------------|
|-------------|
|-------------|
|-67-67-67-67-|
pm.. .. .. ..

GTR 2
|------------------|
|-<5><5><5><5>...--|
|------------------|
|------------------|
|------------------|
|------------------|


Riff 3
|-----------------------------------|
|-----------------------------------|
|o---------------------------------o|
|o-7-7-7-8-8-8-7-7-7-5-7-8-7-5-5-5-o|
|--7-7-7-8-8-8-7-7-7-5-7-8-7-5-5-5--|
|--7-7-7-8-8-8-7-7-7-5-7-8-7-5-5-5--|

end with..

|-----------------------------|
|-----------------------------|
|-----------------------------|
|-7-7-7-8-8-8-7-7-7-5-7-8-7-5-|
|-7-7-7-8-8-8-7-7-7-5-7-8-7-5-|
|-7-7-7-8-8-8-7-7-7-5-7-8-7-5-|

Riff 4
A.
|--------------------0---|
|--------------------6---|
|--------------------8b*-|
|------------------------|
|------------------------|
|-0-0-000-0-110-0000-----|
(*=only bend 8 up, to make it sound like 6 on string Bb)

B.
|-----------------------|
|-----------------------|
|--------------------13-|
|--------------------x--|
|--------------------11-|
|-0-0-000-0-110-0000----|

C.
|--------------------------|
|--------------------------|
|--------------------------|
|-------------------777777-|
|-------------------777777-|
|-0-0-000-0-110-000-777777-|
pm                  ......

Order of these go (A,B,A,C) then (A,C) 2nd time.

Riff 5
|-------------------|-----|
|-------------------|-----|
|o-----------------o|-----|
|o-0-2-1-0-1-2-1-0-o|-1p0-|
|--0-2-1-0-1-2-1-0--|-1p0-|
|--0-2-1-0-1-2-1-0--|-1p0-|
pm. . . . . . . .
 
For the ending.. gradually let off palm mute in Riff 5
            
Hard to play? Try these video lessons and learn fast. | Correct




comments powered by Disqus
↑ Back to top | Tablatures and chords are parodies/interpretations of the original songs. You may use it for private study, scholarship, research or language learning purposes only