» » »

American Head Charge, Take What I've Taken Tabs (ver.1)

Artists:  A B C D E F G H I J K L M N O P Q R S T U V W X Y Z # 

Take What I've Taken Tabs (ver.1)

American Head Charge Tabs
 Rating:
4/5 (4 votes)
Take What I've Taken lessons Tabs too difficult? Try these video lessons and learn fast
1
                ---------------------------------------------------------------------------
Take What I´ve Taken – American Head Charge
---------------------------------------------------------------------------

Tuning: C G C F A d

INTRO
d|---------------------|    d|--------------------------------|
A|---------------------|    A|--------------------------------|
F|---------------------|    F|--------------------------------|
C|---------------------|    C|--------------------x-x-1-x-x-4-|
G|---------------------|    G|--------------------x-x-1-x-x-4-|
C|-1-/-3-3-3-3-3-33333-|    C|-1-/-3-3-3-3-3-3-3--x-x-1-x-x-4-|
___*___*_*_*_*_*_*****______*___*_*_*_*_*_*_*

d|-------------------------|
A|--------4--4-4-4-/-7-7---|
F|--------3--3-3-3-/-6-6---|
C|--1-1-1-1--1-1-1-/-4-4---|
G|--1-1-1-1--1-1-1-/-4-4---|
C|--1-1-1-1--1-1-1-/-4-4---|

VERSE
d|---------------------|    d|--------------------------------|
A|---------------------|    A|--------------------------------|
F|---------------------|    F|--------------------------------|
C|---------------------|    C|--------------------x-x-1-x-x-4-|
G|---------------------|    G|--------------------x-x-1-x-x-4-|
C|-1-/-3-3-3-3-3-33333-|    C|-1-/-3-3-3-3-3-3-3--x-x-1-x-x-4-|
___*___*_*_*_*_*_*****______*___*_*_*_*_*_*_*

CHORUS
d|---------------------------------------------------------------|
A|---------------------------------------------------------------|
F|---------------------------------------------------------------|
C|-1-/-3-3-3-4-----1-/-3-3-3-4-----1-/-3-3-3-4-----1-/-3-3-3-2---|
G|-1-/-3-3-3-4-----1-/-3-3-3-4-----1-/-3-3-3-4-----1-/-3-3-3-2---|
C|-1-/-3-3-3-4-----1-/-3-3-3-4-----1-/-3-3-3-4-----1-/-3-3-3-2---|

VERSE
d|---------------------|    d|--------------------------------|
A|---------------------|    A|--------------------------------|
F|---------------------|    F|--------------------------------|
C|---------------------|    C|--------------------x-x-1-x-x-4-|
G|---------------------|    G|--------------------x-x-1-x-x-4-|
C|-1-/-3-3-3-3-3-33333-|    C|-1-/-3-3-3-3-3-3-3--x-x-1-x-x-4-|
___*___*_*_*_*_*_*****______*___*_*_*_*_*_*_*

CHORUS
d|---------------------------------------------------------------|
A|---------------------------------------------------------------|
F|---------------------------------------------------------------|
C|-1-/-3-3-3-4-----1-/-3-3-3-4-----1-/-3-3-3-4-----1-/-3-3-3-2---|
G|-1-/-3-3-3-4-----1-/-3-3-3-4-----1-/-3-3-3-4-----1-/-3-3-3-2---|
C|-1-/-3-3-3-4-----1-/-3-3-3-4-----1-/-3-3-3-4-----1-/-3-3-3-2---|

INTER
Gtr. 1
d|-------|        d|-----------|
A|-------|        A|-----------|
F|--10---|          F|--11-----|
C|-------|          C|---------|
G|-------|        G|-----------|
C|-------|        C|-----------|

Gtr. 2
d|--------------------------------------------|
A|--------------------------------------------|
F|--------------------------------------------|
C|--------------------------------------------|
G|--------------------------------------------|
C|-1-/-3-3-3-3-3-33333----1-/-3-3-3-3-3-33333-|
___*___*_*_*_*_*_*****____*___*_*_*_*_*_*****
d|-----------------------------------------------|
A|-----------------------------------------------|
F|-----------------------------------------------|
C|-------------------------------------------4---|
G|-------------------------------------------4---|
C|-1-/-3-3-3-3-3-33333----1-/-3-3-3-3-3-3333-4---|
___*___*_*_*_*_*_*****____*___*_*_*_*_*_****

BRIDGE
d|----------------------------------------|
A|----------------------------------------|
F|----------------------------------------|
C|--1-/-6----/----7----/----4----/----7---|
G|--1-/-6----/----7----/----4----/----7---|
C|--1-/-6----/----7----/----4----/----7---|

d|-----------------------------------------------|
A|-----------------------------------------------|
F|-----------------------------------------------|
C|---6----/----7----/----4----/----7--/--9-/-10--|
G|---6----/----7----/----4----/----7--/--9-/-10--|
C|---6----/----7----/----4----/----7--/--9-/-10--|

d|----------------------------------------|
A|----------------------------------------|
F|----------------------------------------|
C|--1-/-6----/----7----/----4----/----7---|
G|--1-/-6----/----7----/----4----/----7---|
C|--1-/-6----/----7----/----4----/----7---|

d|-----------------------------------------------|
A|-----------------------------------------------|
F|-----------------------------------------------|
C|---6----/----7----/----4----/----7--/--9-/-10--|
G|---6----/----7----/----4----/----7--/--9-/-10--|
C|---6----/----7----/----4----/----7--/--9-/-10--|

OUTRO
d|---------------------------------------------------------------|
A|---------------------------------------------------------------|
F|---------------------------------------------------------------|
C|-1-/-3-3-3-4-----1-/-3-3-3-4-----1-/-3-3-3-4-----1-/-3-3-3-2---|
G|-1-/-3-3-3-4-----1-/-3-3-3-4-----1-/-3-3-3-4-----1-/-3-3-3-2---|
C|-1-/-3-3-3-4-----1-/-3-3-3-4-----1-/-3-3-3-4-----1-/-3-3-3-2---|

d|--------------------------------------------------------------------|
A|--------------------------------------------------------------------|
F|-----------XX-8-XX-11------------XX-8-XX-11--------------XX-8-XX-11-|
C|-1-/-3-3-3-XX-8-XX-11--1-/-3-3-3-XX-8-XX-11--1-/-3-3-3-4-XX-8-XX-11-|
G|-1-/-3-3-3-XX-6-XX-9---1-/-3-3-3-XX-6-XX-9---1-/-3-3-3-4-XX-6-XX-9--|
C|-1-/-3-3-3-------------1-/-3-3-3-------------1-/-3-3-3-4------------|

d|----------------------|
A|----------------------|
F|-8-/-10---10-10-10----|
C|-8-/-10---10-10-10----|
G|-6-/-8----8--8--8-----|
C|----------------------|


| /  slide up
| \  slide down
| h  hammer-on
| p  pull-off
| ~  let ring
| +  harmonic
| x  Mute note
| *  Palm Mute

Sorry If It´s Wrong, It sounds OK to me... Listen for the song, and find out the timing 
rythm... It´s really easy... Have Fun!!!
===============================================================================
            
Submit corrections

comments powered by Disqus
↑ Back to top | American Head Charge Tabs for Take What I've Taken. Lyrics for acoustic guitar and electric guitar. 1 Tablatures and chords are parodies/interpretations of the original songs. You may use it for private study, scholarship, research or language learning purposes only