» » »

American Head Charge, Self Tabs (ver.2)

Artists:  A B C D E F G H I J K L M N O P Q R S T U V W X Y Z # 

Self Tabs (ver.2)

American Head Charge Tabs
Rating:
0/5 (0 votes)
Self lessons Tabs too difficult? Try these video lessons and learn fast
                Tuning: D flat (Db,Ab,Db,Gb,Bb,eb)

5/5/02: This tab is perfect, i saw them in concert, and this is exactly how it's played....


Intro:
-----------------------------|------------------------------------------------
-----------------------------|------------------------------------------------
------9------9-10-10-10-10---|------9------9-9-10-10-12-12--------------------
-2-2--9--2-2-9-10-10-10-10---|-2-2--9--2-2-9-9-10-10-12-12--------------------
-2-2--7--2-2-7--8--8--8--8---|-2-2--7--2-2-7-7--8--8-10-10--------------------
-2-2-----2-2-----------------|-2-2-----2-2------------------------------------
                                                                              

24: * = first time only
-----3-------3-------3-------3------------------------------------------------
-1*--3-2-2-2-3-2-2-2-3-2-2-2-3----1-1---1-1-----------------------------------
-1*--1-2-2-2-1-2-2-2-1-2-2-2-1----1-1---1-1-----------------------------------
-1*----2-2-2---2-2-2---2-2-2------1-1---1-1-----------------------------------
                                                                              
                                                                              
44:
-1---------1---------1---------1----------------------------------------------
---2-2-2-2---2-2-2-2---2-2-2-2------------------------------------------------
                                                                              

59: it doesn't matter anyway!... (other guitar is muting)
-1-1--1-1--1-1--1-1--1-1--1-1-------------------------------------------------
-1-1--1-1--1-1--1-1--1-1--1-1-------------------------------------------------
-1-1--1-1--1-1--1-1--1-1--1-1-------------------------------------------------


you're such a liar!...
-----------------------------|------------------------------------------------
-----------------------------|------------------------------------------------
------9------9-10-10-10-10---|------9------9-9-10-10-12-12--------------------
-2-2--9--2-2-9-10-10-10-10---|-2-2--9--2-2-9-9-10-10-12-12--------------------
-2-2--7--2-2-7--8--8--8--8---|-2-2--7--2-2-7-7--8--8-10-10--------------------
-2-2-----2-2-----------------|-2-2-----2-2------------------------------------


interlude 2:41
-5-5-5-5-5-5-6-6-2-2-2-2-2-2-2------------------------------------------------
-5-5-5-5-5-5-6-6-2-2-2-2-2-2-2------------------------------------------------
-5-5-5-5-5-5-6-6-2-2-2-2-2-2-2------------------------------------------------
                                                                              

you left with more of the same...
-9-9-9-9-9-9-9-9-9-10-10-10-10-10-10-10--3-------3-------3-----------3--------
-9-9-9-9-9-9-9-9-9-10-10-10-10-10-10-10--3-2-2-2-3-2-2-2-3-2-2-2-2-2-3--------
-7-7-7-7-7-7-7-7-7--8--8--8--8--8--8--8--1-2-2-2-1-2-2-2-1-2-2-2-2-2-1--------
-------------------------------------------2-2-2---2-2-2---2-2-2-2-2----------
            
Submit corrections

comments powered by Disqus
↑ Back to top | American Head Charge Tabs for Self. Lyrics for acoustic guitar and electric guitar. Tablatures and chords are parodies/interpretations of the original songs. You may use it for private study, scholarship, research or language learning purposes only