» » »

American Head Charge, Self Tabs (ver.1)

Artists:  A B C D E F G H I J K L M N O P Q R S T U V W X Y Z # 

Self Tabs (ver.1)

American Head Charge Tabs
Rating:
0/5 (0 votes)
Self lessons Tabs too difficult? Try these video lessons and learn fast
                Tuning: Db, Ab, Db, Gb, Bb, Eb.

I didn't like the other guy's tab so I made corrections based on his tab.
i think mine sounds more accurate.

Intro riff
----------------------------------------------------------|--------|
----------------------------------------------------------|--------|
------9------9-9-9-9-10-10------9------10-10-10-10-12-12--|--------|
--2-2-9--2-2-9-9-9-9-10-10--2-2-9--2-2-10-10-10-10-12-12--|--1~~~--|
--2-2-7--2-2-7-7-7-7-8--8---2-2-7--2-2-8--8--8--8--10-10--|--1~~~--|
--2-2----2-2----------------2-2----2-2--------------------|--1~~~--|

Fill riff
---------------------------|--------------------------------|
---------------------------|--------------------------------|
--3---------3--------------|--3---------3-------------------|
--3-2-2---2-3-2-2---2-0-2--|--3-2-2---2-3-2-2---2-1-1--1-1--|
--1-2-2---2-1-2-2---2-0-2--|--1-2-2---2-1-2-2---2-1-1--1-1--|
----2-2---2---2-2---2-0-2--|----2-2---2---2-2---2-1-1--1-1--|
pm                                                 ...  ...

Verse riff (Put the volume right down for the verse.)

Preconceived notions of something, and everyone's gone.
-----------------------------------------------------|
-----------------------------------------------------|
-----------------------------------------------------|
-----------------------------------------------------|
--1---------1---------------1---------1--------------|
----2-2---2---2-2---2-0-2-----2-2---2---2-2---2-0-2--|
pm                                               ...

Would you consider it a gift, but that....
---------------------------------------------|
---------------------------------------------|
---------------------------------------------|
---------------------------------------------|
--1---------1---------------1---------1------|
----2-2---2---2-2---2-0-2-----2-2---2---2-2--|

Doesn't matter anyway, it doesn't matter anyway.
------------------------------------------|
------------------------------------------|
------------------------------------------|
--1-1--1-1--1-1--1-1--1-1--1-1--1-1--1-1--|
--1-1--1-1--1-1--1-1--1-1--1-1--1-1--1-1--|
--1-1--1-1--1-1--1-1--1-1--1-1--1-1--1-1--|
pm ...  ...  ...  ...  ...  ...  ...  ...

Tap the top string with the side of your pick for the cool
effect under the last line of lyrics afore the chorus.

Chorus riff

Liar. You're such a liar.
----------------------------------------------------------|
----------------------------------------------------------|
------9------9-9-9-9-10-10------9------10-10-10-10-12-12--|
--2-2-9--2-2-9-9-9-9-10-10--2-2-9--2-2-10-10-10-10-12-12--|
--2-2-7--2-2-7-7-7-7-8--8---2-2-7--2-2-8--8--8--8--10-10--|
--2-2----2-2----------------2-2----2-2--------------------|

On your hands and knees picking up the broken pieces.
----------------------------------------------------------|
----------------------------------------------------------|
----------------------------------------------------------|
--1-1-xx-1-1-xx-1-1-xx-1-1-xx-1-1-xx-1-1-xx-1-1-xx-1-1-xx-|
--1-1-xx-1-1-xx-1-1-xx-1-1-xx-1-1-xx-1-1-xx-1-1-xx-1-1-xx-|
--1-1-xx-1-1-xx-1-1-xx-1-1-xx-1-1-xx-1-1-xx-1-1-xx-1-1-xx-|

Liar. You're such a liar.
----------------------------------------------------------|
----------------------------------------------------------|
------9------9-9-9-9-10-10------9------10-10-10-10-12-12--|
--2-2-9--2-2-9-9-9-9-10-10--2-2-9--2-2-10-10-10-10-12-12--|
--2-2-7--2-2-7-7-7-7-8--8---2-2-7--2-2-8--8--8--8--10-10--|
--2-2----2-2----------------2-2----2-2--------------------|

On your hands and knees....
--1-1-xx-1-1-xx-1-1-xx-1-1-xx-1-1-1-1-1-1-1-1-1-1-1-1-1-1-1-1--|
--1-1-xx-1-1-xx-1-1-xx-1-1-xx-1-1-1-1-1-1-1-1-1-1-1-1-1-1-1-1--|
--1-1-xx-1-1-xx-1-1-xx-1-1-xx-1-1-1-1-1-1-1-1-1-1-1-1-1-1-1-1--|
pm                            ................................

Fill riff
---------------------------|--------------------------------|
---------------------------|--------------------------------|
--3---------3--------------|--3---------3-------------------|
--3-2-2---2-3-2-2---2-0-2--|--3-2-2---2-3-2-2---2-1-1--1-1--|
--1-2-2---2-1-2-2---2-0-2--|--1-2-2---2-1-2-2---2-1-1--1-1--|
----2-2---2---2-2---2-0-2--|----2-2---2---2-2---2-1-1--1-1--|
pm                                                 ...  ...

Verse riff (Put the volume right down for the verse.)

Only one resource left, so don’t frown on my surprise.
-----------------------------------------------------|
-----------------------------------------------------|
-----------------------------------------------------|
-----------------------------------------------------|
--1---------1---------------1---------1--------------|
----2-2---2---2-2---2-0-2-----2-2---2---2-2---2-0-2--|
pm                                               ...

I swear I’ve seen you before, but that....
---------------------------------------------|
---------------------------------------------|
---------------------------------------------|
---------------------------------------------|
--1---------1---------------1---------1------|
----2-2---2---2-2---2-0-2-----2-2---2---2-2--|

Doesn't matter anyway, it doesn't matter anyway.
------------------------------------------|
------------------------------------------|
------------------------------------------|
--1-1--1-1--1-1--1-1--1-1--1-1--1-1--1-1--|
--1-1--1-1--1-1--1-1--1-1--1-1--1-1--1-1--|
--1-1--1-1--1-1--1-1--1-1--1-1--1-1--1-1--|
pm ...  ...  ...  ...  ...  ...  ...  ...

Doesn't matter anyway, it doesn't matter anyway.
----------------------------------------------------------|
----------------------------------------------------------|
----------------------------------------------------------|
--1-1-xx-1-1-xx-1-1-xx-1-1-xx-1-1-xx-1-1-xx-1-1-xx-1-1-xx-|
--1-1-xx-1-1-xx-1-1-xx-1-1-xx-1-1-xx-1-1-xx-1-1-xx-1-1-xx-|
--1-1-xx-1-1-xx-1-1-xx-1-1-xx-1-1-xx-1-1-xx-1-1-xx-1-1-xx-|

Chorus riff

Liar. You're such a liar.
----------------------------------------------------------|
----------------------------------------------------------|
------9------9-9-9-9-10-10------9------10-10-10-10-12-12--|
--2-2-9--2-2-9-9-9-9-10-10--2-2-9--2-2-10-10-10-10-12-12--|
--2-2-7--2-2-7-7-7-7-8--8---2-2-7--2-2-8--8--8--8--10-10--|
--2-2----2-2----------------2-2----2-2--------------------|

On your hands and knees picking up the broken pieces.
----------------------------------------------------------|
----------------------------------------------------------|
----------------------------------------------------------|
--1-1-xx-1-1-xx-1-1-xx-1-1-xx-1-1-xx-1-1-xx-1-1-xx-1-1-xx-|
--1-1-xx-1-1-xx-1-1-xx-1-1-xx-1-1-xx-1-1-xx-1-1-xx-1-1-xx-|
--1-1-xx-1-1-xx-1-1-xx-1-1-xx-1-1-xx-1-1-xx-1-1-xx-1-1-xx-|

Liar. You're such a liar.
----------------------------------------------------------|
----------------------------------------------------------|
------9------9-9-9-9-10-10------9------10-10-10-10-12-12--|
--2-2-9--2-2-9-9-9-9-10-10--2-2-9--2-2-10-10-10-10-12-12--|
--2-2-7--2-2-7-7-7-7-8--8---2-2-7--2-2-8--8--8--8--10-10--|
--2-2----2-2----------------2-2----2-2--------------------|

On your hands and knees....
--1-1-xx-1-1-xx-1-1-xx-1-1-xx-1-1-1-1-1-1-1-1-1-1-1-1-1-1-1-1--|
--1-1-xx-1-1-xx-1-1-xx-1-1-xx-1-1-1-1-1-1-1-1-1-1-1-1-1-1-1-1--|
--1-1-xx-1-1-xx-1-1-xx-1-1-xx-1-1-1-1-1-1-1-1-1-1-1-1-1-1-1-1--|
pm                            ................................

Breakdown riff 1

Pleasingly, falling apart, pleasingly, oblivious.
--5-5-5-5-5-5-5-5-5-5-5-5-6-6-6-6-2-2-2-2-2-2-2-2-2-2-2-2-2-2-2-2--|
--5-5-5-5-5-5-5-5-5-5-5-5-6-6-6-6-2-2-2-2-2-2-2-2-2-2-2-2-2-2-2-2--|
--5-5-5-5-5-5-5-5-5-5-5-5-6-6-6-6-2-2-2-2-2-2-2-2-2-2-2-2-2-2-2-2--|

Fill riff
---------------------------|
---------------------------|
--3---------3--------------|
--3-2-2---2-3-2-2---2-0-2--|
--1-2-2---2-1-2-2---2-0-2--|
----2-2---2---2-2---2-0-2--|

Breakdown riff 2

You left with more of the same, I can’t win.
--7-7-7-7-7-7-7-7-9-9-9-9-12-12-12-12--3---------3--------------|
--7-7-7-7-7-7-7-7-9-9-9-9-12-12-12-12--3-2-2---2-3-2-2---2-0-2--|
--5-5-5-5-5-5-5-5-7-7-7-7-10-10-10-10--1-2-2---2-1-2-2---2-0-2--|
-----------------------------------------2-2---2---2-2---2-0-2--|

Outro riff 1

You’re such a liar, lair, liar, liar, liar.
----------------------------------------------------------|
----------------------------------------------------------|
------9------9-9-9-9-10-10------9------10-10-10-10-12-12--|
--2-2-9--2-2-9-9-9-9-10-10--2-2-9--2-2-10-10-10-10-12-12--|
--2-2-7--2-2-7-7-7-7-8--8---2-2-7--2-2-8--8--8--8--10-10--|
--2-2----2-2----------------2-2----2-2--------------------|

Outro riff 2
-----------------------------|
-----------------------------|
--3---------3-------------3--|
--3-2-2---2-3-2-2---2-0-2-3--|
--1-2-2---2-1-2-2---2-0-2-1--|
----2-2---2---2-2---2-0-2----|
pm                       ...

That song is amazing. If you haven’t got the album,
you shouldn’t be listening to music.

Lyrics:

No sense of self
to balance it off
Preconceived notions of something
And everyone’s gone
Will I show up
With all I have to give
Would you consider it a gift
But that
Doesn’t matter anyway
It doesn’t matter anyway
It doesn’t matter anyway
Liar you’re such a liar
On your hands and knees
Picking up the broken pieces
Liar you’re such a liar
On your hands and knees
Afraid to turn my head
For fear of what’s behind me
Only one resource left
So don’t frown on my surprise
Is this all you have
Is that all you know
I swear I’ve seen you before
But that
Doesn’t matter anyway
It doesn’t matter anyway
It doesn’t matter anyway
It doesn’t matter anyway
Liar you’re such a liar
On your hands and knees
Picking up the broken pieces
Liar you’re such a liar
On your hands and knees
Pleasingly
Falling apart
Pleasingly
Oblivious
You left with more of the same
I can’t win
Liar.
            

comments powered by Disqus
↑ Back to top | American Head Charge Tabs for Self. Lyrics for acoustic guitar and electric guitar. Tablatures and chords are parodies/interpretations of the original songs. You may use it for private study, scholarship, research or language learning purposes only