» » »

American Head Charge, Ridicule Tabs (ver.1)

Artists:  A B C D E F G H I J K L M N O P Q R S T U V W X Y Z # 

Ridicule Tabs (ver.1)

American Head Charge Tabs
 Rating:
3.4/5 (5 votes)
Ridicule lessons Tabs too difficult? Try these video lessons and learn fast
1
                ---------------------------------------------------------------------------
		     RIDICULE – AMERICAN HEAD CHARGE
---------------------------------------------------------------------------

Intro
e|----|   |----------|
B|-16-|   |-16-16-16-|
G|----|   |----------| x 4 (this part only)
D|----|   |----------|
A|----|   |----------|
E|----|   |----------|

Play this 3 parts as much as needed.
e|--------------------------14-14--14-14/16-16------|
B|-16---16-16-16---16-16-16-------------------------|
G|--------------------------------------------------|
D|--------------------------------------------------|
A|--------------------------------------------------|
E|--------------------------------------------------|

e|-----------------------------------------------|
B|-16---16-16-16--16-16-16\14-14--14-14\12-12----|
G|-----------------------------------------------|
D|-----------------------------------------------|
A|-----------------------------------------------|
E|-----------------------------------------------|

fret 11
e|-------------------------------------------------------------------|
B|11-111111-111111-11111111/14-14-16-16-16-16-16-16-16-16-16-16\14-14|
G|-------------------------------------------------------------------|
D|-------------------------------------------------------------------|
A|-------------------------------------------------------------------|
E|-------------------------------------------------------------------|

Heavy part (3 times)
e|-----------------|
B|-----------------|
G|-----------------|
D|-----------------|
A|--2--1--5--1--0--|
E|--2--1--5--1--0--|
                *
Verse
e|--------------------------------------------------------|
B|--------------------------------------------------------|
G|--------------------------------------------------------|
D|--------------------------------------------------------|
A|-2--2--2-2----2--2--2-2----2--2--2-2----2--2--2-2--3--5-|
E|-0--0--0-0----0--0--0-0----0--0--0-0----0--0--0-0--1--3-|
           *            *            *
e|------------------------------------------------------------------------|
B|------------------------------------------------------------------------|
G|------------------------------------------------------------------------|
D|------------------------------------------------------------------------|
A|xx-xx-xx-2-1-xx-1-2-xx-xx-xx-2-1-xx-1-2-xx-xx-xx-2-1-xx-1-2-xx-2-1-5-1-0|
E|xx-xx-xx-2-1-xx-1-2-xx-xx-xx-2-1-xx-1-2-xx-xx-xx-2-1-xx-1-2-xx-2-1-5-1-0|

e|---------------------------------------------------|
B|---------------------------------------------------|
G|---------------------------------------------------|
D|---------------------------------------------------|
A|-2--2--2-2---2--2--2-2---2--2--2-2---2--2--2-2-1-5-|
E|-2--2--2-2---2--2--2-2---2--2--2-2---2--2--2-2-1-5-|
           *           *           *
e|-----------------------------------------------------------------|
B|-----------------------------------------------------------------|
G|-----------------------------------------------------------------|
D|-----------------------------------------------------------------|
A|--2--2--2-2-1-5---2--2--2-2-1-5---2--2--2-2-1-5---2--2--2-2-1-5--|
E|--2--2--2-2-1-5---2--2--2-2-1-5---2--2--2-2-1-5---2--2--2-2-1-5--|

Pre-Chorus
(x2)
e|-------------------------------------------------------------------|
B|-------------------------------------------------------------------|
G|-------------------------------------------------------------------|
D|-6~--6-6-6--xx--8~--8-8-8--xx--9~--9-9-9--xx--11~--11-11--12-12-12-|
A|-6~--6-6-6--xx--8~--8-8-8--xx--9~--9-9-9--xx--11~--11-11--12-12-12-|
E|-4~--4-4-4--xx--6~--6-6-6--xx--7~--7-7-7--xx---9~---9--9--10-10-10-|

Bridge (x6)
e|-----------------|
B|-----------------|
G|---8---11-10-6---|
D|-----------------|
A|-----------------|
E|-----------------|

Chorus
(x2)								    2nd time
e|-------------------------------------------------------------------|-----|
B|-------------------------------------------------------------------|-----|
G|10101010101010101010/11\10-888888888888-3333333333/66-888888888888-|11~10|
D|-------------------------------------------------------------------|-----|
A|-8-8-8-8-8-8-8-8-8-8/-9\-8-666666666666-1111111111/44-666666666666-|-9~-8|
E|-------------------------------------------------------------------|-----|

Verse
(x3)
e|------------------------------------------------------------------------|
B|------------------------------------------------------------------------|
G|------------------------------------------------------------------------|
D|------------------------------------------------------------------------|
A|xx-xx-xx-2-1-xx-1-2-xx-xx-xx-2-1-xx-1-2-xx-xx-xx-2-1-xx-1-2-xx-2-1-5-1-0|
E|xx-xx-xx-2-1-xx-1-2-xx-xx-xx-2-1-xx-1-2-xx-xx-xx-2-1-xx-1-2-xx-2-1-5-1-0|

e|---------------------------------------------------|
B|---------------------------------------------------|
G|---------------------------------------------------|
D|---------------------------------------------------|
A|-2--2--2-2---2--2--2-2---2--2--2-2---2--2--2-2-1-5-|
E|-2--2--2-2---2--2--2-2---2--2--2-2---2--2--2-2-1-5-|
           *           *           *
e|-----------------------------------------------------------------|
B|-----------------------------------------------------------------|
G|-----------------------------------------------------------------|
D|-----------------------------------------------------------------|
A|--2--2--2-2-1-5---2--2--2-2-1-5---2--2--2-2-1-5---2--2--2-2-1-5--|
E|--2--2--2-2-1-5---2--2--2-2-1-5---2--2--2-2-1-5---2--2--2-2-1-5--|

Pre-Chorus
(x2)
e|-------------------------------------------------------------------|
B|-------------------------------------------------------------------|
G|-------------------------------------------------------------------|
D|-6~--6-6-6--xx--8~--8-8-8--xx--9~--9-9-9--xx--11~--11-11--12-12-12-|
A|-6~--6-6-6--xx--8~--8-8-8--xx--9~--9-9-9--xx--11~--11-11--12-12-12-|
E|-4~--4-4-4--xx--6~--6-6-6--xx--7~--7-7-7--xx---9~---9--9--10-10-10-|

Chorus
(x4)									  4th time
e|-------------------------------------------------------------------|-----|
B|-------------------------------------------------------------------|-----|
G|10101010101010101010/11\10-888888888888-3333333333/66-888888888888-|11~10|
D|-------------------------------------------------------------------|-----|
A|-8-8-8-8-8-8-8-8-8-8/-9\-8-666666666666-1111111111/44-666666666666-|9~-8-|
E|-------------------------------------------------------------------|-----|

Outro
Play this 3 parts as much as needed.
e|--------------------------14-14--14-14/16-16------|
B|-16---16-16-16---16-16-16-------------------------|
G|--------------------------------------------------|
D|--------------------------------------------------|
A|--------------------------------------------------|
E|--------------------------------------------------|

e|-----------------------------------------------|
B|-16---16-16-16--16-16-16\14-14--14-14\12-12----|
G|-----------------------------------------------|
D|-----------------------------------------------|
A|-----------------------------------------------|
E|-----------------------------------------------|

fret 11
e|-------------------------------------------------------------------|
B|11-111111-111111-11111111/14-14-16-16-16-16-16-16-16-16-16-16\14-14|
G|-------------------------------------------------------------------|
D|-------------------------------------------------------------------|
A|-------------------------------------------------------------------|
E|-------------------------------------------------------------------|


That´s it. You´ve got to listen to the song to get the correct timming, it´s not as hard 
it seems. Any comment, please e-mail me ;) Be CoOl!!!!! HeAd RuLeS!!!!!


| /  slide up
| \  slide down
| ~  vibrato
| x  Mute note
| *  Palm Mute
==================================================================
            
Submit corrections

comments powered by Disqus
↑ Back to top | American Head Charge Tabs for Ridicule. Lyrics for acoustic guitar and electric guitar. 1 Tablatures and chords are parodies/interpretations of the original songs. You may use it for private study, scholarship, research or language learning purposes only