>
 >
Pushing The Envelope

Pushing The Envelope Guitar Tabs

American Head Charge - Pushing The Envelope chords, tabs, tablatures, lyrics

Guitar lessons | Add/correct | Request | Top 50 tabs Artists:  A B C D E F G H I J K L M N O P Q R S T U V W X Y Z 0-9

Pushing The Envelope Guitar Tabs – American Head Charge

CD, Sheet music, Poster

Do you like Pushing The Envelope? Share with your friends now
Tabs
Tuning: Drop D down 1 1/2 steps (B,F#,B,E,G#,C#)(Low to High)

<> natural harmonics
p  pull off
h  hammer on
b  bend
)  tremelo pick while sliding
riff 1

|---------------------|                  |-----|
|---------------------|                  |-----|
|---------------------|                  |-----|
|--7-6-000--4-7-6-000-|                  |-7-6-|
|--7-6-000--4-7-6-000-|                  |-7-6-|
|--7-6-000--4-7-6-000-| X3 then end with |-7-6-|
PM     ...        ...

verse riff: Turn off volume knob than hit this chord, then turn it back up with the chord still
ringing after he says "the way that i am" (listen to song)
|---|
|---|
|---|
|-0-|
|-0-|
|-0-|

now..
|-------------------------------|
|-------------------------------|
|-------------------------------|
|-1-1---1-1---1-1---1-1---------|
|-1-1---1-1---1-1---1-1--5555---|
|-1-1---1-1---1-1---1-1---------|
PM                       ....

chorus

|------------------------------------------------|
|------------------------------------------------|
|------------------------------------------------|
|---0--------------------------------------------|
|---0--------------------------------------------| X4
|-0-0-1bp0-1bp0-1bp0-1bp0-1bp0-1bp0-1bp0-1bp0-1b-|
  ^-^
 omit these the 3rd time (just rest)

riff 2

 |------|
 |------|
 |------|
 |-11-1-|
 |-11-1-| X8
 |-11-1-|
PM ..


During "Killing myself like a tool..."

GTR 1 (w/ effect)

riff 3a

 |----------|
 |----------|
 |--7h8-8-8-|
 |----------|
 |----------|
 |----------|

riff 3b

 |----------|
 |----------|
 |--6h7-7-7-|
 |----------|
 |----------|
 |----------|

riff 3c

 |----------|
 |----------|
 |--8h9-9-9-|
 |----------|
 |----------|
 |----------|


GTR 2
Play riff 3a most of the time.  then switch to the others on the repeats when he sings "like a
tool..." so play 3a the first time through, then 3b the second, and 3c the 3rd time through.

riff 3a

|------|
|------|
|------|
|--1-1-|
|--1-1-|
|--1-1-|
PM .

riff 3b

2:22-2:26
|------|
|------|
|------|
|--0-0-|
|--0-0-|
|--0-0-|
PM .

riff 3c

2:32
|------|
|------|
|------|
|--2-2-|
|--2-2-|
|--2-2-|
PM .

GTR 1&2
2:37
|------|
|------|
|------|
|--0-0-|
|--0-0-|
|--0-0-|
PM .

Then...

|---------------------------------|
|--------<9>----<3>)))))))<9>-----|
|--------<9>----<3>)))))))<9>-----|
|--00-0---------------------------|
|--00-0---------------------------|
|--00-0---------------------------|
PM ..


and then


riff 4
|-------------------------|
|-------------------------|
|-------------------------|
|-----------000-4-7-6-000-|
|-----------000-4-7-6-000-| X4
|-7bp0-6bp0-000-4-7-6-000-|
PM          ...       ...


ending..

 |--------------------------------------------------|
 |--------------------------------------------------|
 |--------------------------------------------------|
 |-0--------------0--------------0--------------0---|
 |-0-mother***er-0-mother***er-0-mother***er-0------|
 |-0--------------0--------------0--------------0---|





Comments


Popular American Head Charge tabs & chords
Loyalty 1 Bass Tabs
Seamless Bass Tabs
A Violent Reaction 2 Tabs
All Wrapped Up 1 Tabs
Americunt Evolving Into Useless Psychic Garbage Tabs
Just So You Know (Intro) Tabs
Seamless Tabs
Self Tabs
Shutdown Tabs
Violent Reaction 1 Tabs


Song lyrics



↑ Back to top | Tablatures and chords are parodies/interpretations of the original songs. You may use it for private study, scholarship, research or language learning purposes only
© 2014 AZChords.com Contact us | Privacy policy | DMCA | Add/correct tabs | Request tabs | Top 50 tabs