>
 >
Loyalty 2

Loyalty 2 Guitar Tabs

American Head Charge - Loyalty 2 chords, tabs, tablatures, lyrics

Guitar lessons | Add/correct | Request | Top 50 tabs Artists:  A B C D E F G H I J K L M N O P Q R S T U V W X Y Z 0-9

Loyalty 2 Guitar Tabs – American Head Charge

CD, Sheet music, Poster

Do you like Loyalty 2? Share with your friends now
Bass TabsBass Tabs v2TabsTabs v2Tabs v3
Band: American Head Charge

* = Palm Mute
b = Bend
h = Hammer on

Tuning: Down 1/2 step, Drop-D (Db,Ab,Db,Gb,bb,eb)

Intro/Main Riff: GTR1 + GTR2
|--------------------------------|
|--------------------------------|
|--------------------------------|
|-----7-8----5-6----7-8----5b----|
|-000-5-6-00-3-4-00-5-6-00-3b----|
|-000-----00-----00-----00-------|
  ***     **     **     **

Riff 2: 

GTR1
|--------------------------------------------|
|-----------10--------9----------------------|
|-7h8--7h8-----7h8-7-------------------------|
|----0----0-------0--------------------------|
|--------------------------------------------|
|--------------------------------------------|

GTR 2:
|---------------------------------|   
|---------------------------------|   
|---------------------------------|   
|---------------------------------|   
|---------------------------------|x7 
|-0-0-0-12-0-12-0-0-0-10-0-10-----|   
  * * * *  * *  * * *            

|-------------------------|
|-------------------------|
|-------------------------|
|-------------------------|
|---------------------3b--|x1
|-0-0-0-12-0-12-0-0-0-----|
  * * * *  * *  * * * 

Intro/Main Riff: GTR1 + GTR2
|--------------------------------|
|--------------------------------|
|--------------------------------|
|-----7-8----5-6----7-8----5b----|
|-000-5-6-00-3-4-00-5-6-00-3b----|
|-000-----00-----00-----00-------|
  ***     **     **     **

Riff 3: 

GTR1
|--------------------------------------------|
|-----------10--------9----------------------|
|-7h8--7h8-----7h8-7-------------------------|
|----0----0-------0--------------------------|
|--------------------------------------------|
|--------------------------------------------|

GTR 1 when guitar 2 sets in play this over it
|------|
|------|
|-7----|
|-x----|
|-5----|
|------|


GTR 2:
|---------------------------------|   
|---------------------------------|   
|---------------------------------|   
|---------------------------------|   
|---------------------------------|x7 
|-0-0-0-12-0-12-0-0-0-10-0-10-----|   
  * * * *  * *  * * *          

|-------------------------|
|-------------------------|
|-------------------------|
|-------------------------|
|---------------------3b--|x1
|-0-0-0-12-0-12-0-0-0-----|
  * * * *  * *  * * * 
  
Intro/Main Riff: GTR1 + GTR2
|--------------------------------|
|--------------------------------|
|--------------------------------|
|-----7-8----5-6----7-8----5b----|
|-000-5-6-00-3-4-00-5-6-00-3b----|
|-000-----00-----00-----00-------|
  ***     **     **     **
  
Riff 4
|-----------------------------------------------------|
|-----------------------------------------------------|
|-----------------------------------------------------|
|-12-10-0---0-12-10-0---0-12-10-0---0-10-9-10-12-10-9-|
|-12-10-0---0-12-10-0---0-12-10-0---0-10-9-10-12-10-9-|
|-12-10-0---0-12-10-0---0-12-10-0---0-10-9-10-12-10-9-|


Riff 5 
|-------------------------------------------------|
|-------------------------------------------------|
|--777777--121212-131313--------------111111-888--|
|--777777--121212-131313--------------111111-888--|
|--555555--101010-111111-101010101010--9-9-9-666--|x3
|------------------------101010101010-------------|

|------------------------------------------------------------|
|------------------------------------------------------------|
|--777777----101010--121212--131313131313--------------------|
|--777777----101010--121212--131313131313--10-9-10-12-10-9---|
|--555555-----8-8-8--101010--111111111111--10-9-10-12-10-9---|1x
|------------------------------------------10-9-10-12-10-9---|

Riff 4
|-----------------------------------------------------|
|-----------------------------------------------------|
|-----------------------------------------------------|
|-12-10-0---0-12-10-0---0-12-10-0---0-10-9-10-12-10-9-|
|-12-10-0---0-12-10-0---0-12-10-0---0-10-9-10-12-10-9-|
|-12-10-0---0-12-10-0---0-12-10-0---0-10-9-10-12-10-9-|

Riff with wah effect.
|-------------------------------|
|-------------------------------|
|-------------------------------|
|-------------------------------|
|----5-6---3-4----5-6---3b------|
|-000----00----00----00---------|
  ***    **    **    **

Intro/Main Riff: GTR1 + GTR2
|--------------------------------|
|--------------------------------|
|--------------------------------|
|-----7-8----5-6----7-8----5b----|
|-000-5-6-00-3-4-00-5-6-00-3b----|
|-000-----00-----00-----00-------|
  ***     **     **     **

|-----|
|-----|
|-----|
|-0---|
|-0---|
|-0---|





Comments


Popular American Head Charge tabs & chords
Just So You Know 1 Bass Tabs
Loyalty Bass Tabs
All Wrapped Up Tabs
Americunt Tabs
Just So You Know Tabs
Just So You Know 2 Tabs
Never Get Caught Tabs
Reach And Touch Tabs
Shutdown Tabs
We Beleive Tabs


Song lyrics



↑ Back to top | Tablatures and chords are parodies/interpretations of the original songs. You may use it for private study, scholarship, research or language learning purposes only
© 2014 AZChords.com Contact us | Privacy policy | DMCA | Add/correct tabs | Request tabs | Top 50 tabs