>
 >
Effigy 1

Effigy 1 Guitar Tabs

American Head Charge - Effigy 1 chords, tabs, tablatures, lyrics

Guitar lessons | Add/correct | Request | Top 50 tabs Artists:  A B C D E F G H I J K L M N O P Q R S T U V W X Y Z 0-9

Effigy 1 Guitar Tabs – American Head Charge

CD, Sheet music, Poster

Do you like Effigy 1? Share with your friends now
TabsTabs v2
Tuning: Drop D down 1/2 step (Db,Ab,Db,Gb,Bb,Eb) (Low to High)


<> natural harmonics
p  pull off
h  hammer on
b  bend
)  tremelo pick while sliding
/  slide up
\  slide down
... Keep playing until you think you should stop and move on.

Note: For the intro riff I think the keyboards play that 
staticy riff in the backround. If they don't play it, 
I put an attempt at what a guitar would play with some effects 
on.  I don't have the pedals they used...

Triplets used a lot in this song...

Intro/Main Riff/Verse riff
GTR 1 & GTR 2
|--------------|
|--------------|
|--------------|
|-0-0-0-0-0-0--|
|-0-0-0-0-0-0--|
|-0-0-0-0-0-0--|
pm. . . . . .

Keyboard part...?
|----19-15-|----19-15\1-|
|-19-------|-19---------|
|----------|------------|
|----------|------------|
|----------|------------|
|----------|------------|

Riff 2
|-------|---------------------|
|-------|---------------------|
|-------|--------7-5-3--------|
|-5-6-1-|-5-6-1--7-5-3--7-6-5-|
|-5-6-1-|-5-6-1--5-3-1--7-6-5-|
|-5-6-1-|-5-6-1---------7-6-5-|

1:35
Riff 3
|---------------------------------------------------------------|
|---------------------------------------------------------------|
|---------------------------------------------------------------|
|-222-222-111-0---222-222-111-0---222-222-111-0-222-222/333/555-|
|-222-222-111-0---222-222-111-0---222-222-111-0-222-222/333/555-|
|-222-222-111-0---222-222-111-0---222-222-111-0-222-222/333/555-|

Riff 4
|-------|-------------------------------------------------|
|-------|-------------------------------------------------|
|-------|--------7-5-3---------7-5-3---------7-5-3--------|
|-5-6-1-|-5-6-1--7-5-3--7-6-5--7-5-3--7-6-5--7-5-3--7-6-5-|
|-5-6-1-|-5-6-1--5-3-1--7-6-5--5-3-1--7-6-5--5-3-1--7-6-5-|
|-5-6-1-|-5-6-1---------7-6-5---------7-6-5---------7-6-5-|

3:00
Riff 5
|---------------|
|---------------|
|---------------|
|-222-222-111-0-|X4
|-222-222-111-0-|
|-222-222-111-0-|

|---------------------------------|
|---------------------------------|
|---------------------------------|
|-222-222-111-000-222-222-333-555-|X2
|-222-222-111-000-222-222-333-555-|
|-222-222-111-000-222-222-333-555-|
pm... ... ... ... ... ... ... ... 

Riff 6
GTR 1
|----------------|
|----------------|
|----------------|
|-2-2-2--2p1p0-0-|X4
|-2-2-2--2p1p0-0-|
|-2-2-2--2p1p0-0-|

GTR 2
|----------------|
|----------------|
|-4-4-4--4\3-3-2-|
|-4-4-4--4\3-3-2-|X4
|-2-2-2--2\1-1-0-|
|----------------|

Riff 7
GTR 1 
|--------------------------------|
|--------------------------------|
|--------------------------------|
|-2-2-2-2p1p0-0---2-2-2-2/333/55-|
|-2-2-2-2p1p0-0---2-2-2-2/333/55-|
|-2-2-2-2p1p0-0---2-2-2-2/333/55-|

GTR 2
|--------------------------------|
|--------------------------------|
|-4-4-4-4\3-3-2---4-4-4-4/555/77-|
|-4-4-4-4\3-3-2---4-4-4-4/555/77-|
|-2-2-2-2\1-1-0---2-2-2-2/333/55-|
|--------------------------------|

Ending...

GTR 1
|-----------------------------|
|-----------------------------|
|-----------------------------|
|-2-2-2-2p1p0-0---2-2-2-5\0---|
|-2-2-2-2p1p0-0---2-2-2-5\0---|
|-2-2-2-2p1p0-0---2-2-2-5\0-0-|

GTR 2
|-----------------------------|
|-----------------------------|
|-4-4-4-4/3-3-2---4-4-4-7\0---|
|-4-4-4-4/3-3-2---4-4-4-7\0---|
|-2-2-2-2/1-1-0---2-2-2-5\0---|
|---------------------------0-|





Comments


Popular American Head Charge tabs & chords
A Violent Reaction Bass Tabs
Just So You Know 1 Bass Tabs
Seamless Bass Tabs
Song For The Suspect Bass Tabs
All Wrapped Up Tabs
All Wrapped Up 1 Tabs
Americunt Tabs
Just So You Know Tabs
Shutdown Tabs
Song For The Suspect Tabs


Song lyrics



↑ Back to top | Tablatures and chords are parodies/interpretations of the original songs. You may use it for private study, scholarship, research or language learning purposes only
© 2014 AZChords.com Contact us | Privacy policy | DMCA | Add/correct tabs | Request tabs | Top 50 tabs