» » »

American Head Charge, Effigy Tabs (ver.1)

Artists:  A B C D E F G H I J K L M N O P Q R S T U V W X Y Z # 

Effigy Tabs (ver.1)

American Head Charge Tabs
 Rating:
4/5 (4 votes)
Effigy lessons Tabs too difficult? Try these video lessons and learn fast
                Tuning: Db,Ab,Db,Gb,Bb,Eb

pm   palm mute
/    slide down
v    vibrato


Guitar 1
intro
-0-0-0-0-0-0-0----------------------------------------------------------------
-0-0-0-0-0-0-0----------------------------------------------------------------
-0-0-0-0-0-0-0----------------------------------------------------------------
p.m...........   



Guitar 2
I'm not sure if this is guitar, but if it is, it has some effect on it                                                                          

-----19v-15v-|------19v--15v-/-1----------------------------------------------
-19v---------|--19v-----------------------------------------------------------
-------------|----------------------------------------------------------------
-------------|----------------------------------------------------------------
-------------|----------------------------------------------------------------
-------------|----------------------------------------------------------------
                                                                              



and still she keeps on loving............
-----------|------------------------------------------------------------------
-----------|------------------------------------------------------------------
-----------|------------------------------------------------------------------
-5--6--1---|-5-6-8-12-10-9-7-6-5----------------------------------------------
-5--6--1---|-5-6-8-12-10-9-7-6-5----------------------------------------------
-5--6--1---|-5-6-8-12-10-9-7-6-5----------------------------------------------


1:21                      
------
------
------
5-6-8-
5-6-8-
5-6-8-                                                        


1:38
-2-2-2-2-1-1-1-1-2-2-2-2-1-1-1-1-2-2-2-2-1-1-1-1-2-2-2-2-3-3-3-3--------------
-2-2-2-2-1-1-1-1-2-2-2-2-1-1-1-1-2-2-2-2-1-1-1-1-2-2-2-2-3-3-3-3--------------
-2-2-2-2-1-1-1-1-2-2-2-2-1-1-1-1-2-2-2-2-1-1-1-1-2-2-2-2-3-3-3-3--------------
                                                                              

-0-0-0-0-0-0-0----------------------------------------------------------------
-0-0-0-0-0-0-0----------------------------------------------------------------
-0-0-0-0-0-0-0----------------------------------------------------------------
p.m...........


2:20
-----------|------------------------------------------------------------------
-----------|------------------------------------------------------------------
-----------|------------------------------------------------------------------
-5--6--1---|-5-6-8-12-10-9-7-6-5-12-10-9-7-6-5-12-10-9-7-6-5------------------
-5--6--1---|-5-6-8-12-10-9-7-6-5-12-10-9-7-6-5-12-10-9-7-6-5------------------
-5--6--1---|-5-6-8-12-10-9-7-6-5-12-10-9-7-6-5-12-10-9-7-6-5------------------


3:00
-2-2-2-2-1-1-1-1-2-2-2-2-1-1-1-1-2-2-2-2-1-1-1-1-2-2-2-2-1-1-1-1--------------
-2-2-2-2-1-1-1-1-2-2-2-2-1-1-1-1-2-2-2-2-1-1-1-1-2-2-2-2-1-1-1-1--------------
-2-2-2-2-1-1-1-1-2-2-2-2-1-1-1-1-2-2-2-2-1-1-1-1-2-2-2-2-1-1-1-1--------------
                                                                              

-2-2-2-2-1-1-1-1-2-2-2-2-3-3-3-3-2-2-2-2-1-1-1-1-2-2-2-2-3-3-3-3--------------
-2-2-2-2-1-1-1-1-2-2-2-2-3-3-3-3-2-2-2-2-1-1-1-1-2-2-2-2-3-3-3-3--------------
-2-2-2-2-1-1-1-1-2-2-2-2-3-3-3-3-2-2-2-2-1-1-1-1-2-2-2-2-3-3-3-3--------------
 p.m.............................................................                                                                             


-2-2-2-2-1-1-1-1-2-2-2-2-1-1-1-1-2-2-2-2-1-1-1-1-2-2-2-2-1-1-1-1--------------
-2-2-2-2-1-1-1-1-2-2-2-2-1-1-1-1-2-2-2-2-1-1-1-1-2-2-2-2-1-1-1-1--------------
-2-2-2-2-1-1-1-1-2-2-2-2-1-1-1-1-2-2-2-2-1-1-1-1-2-2-2-2-1-1-1-1--------------


-2-2-2-2-1-1-1-1-2-2-2-2-3-3-3-3-2-2-2-2-1-1-1-1-2-2-2-2-3--------------------
-2-2-2-2-1-1-1-1-2-2-2-2-3-3-3-3-2-2-2-2-1-1-1-1-2-2-2-2-3--------------------
-2-2-2-2-1-1-1-1-2-2-2-2-3-3-3-3-2-2-2-2-1-1-1-1-2-2-2-2-3--------------------
            
Submit corrections

comments powered by Disqus
↑ Back to top | American Head Charge Tabs for Effigy. Lyrics for acoustic guitar and electric guitar. Tablatures and chords are parodies/interpretations of the original songs. You may use it for private study, scholarship, research or language learning purposes only