» » »

A Violent Reaction Tabs (ver.3)

Artists:  A B C D E F G H I J K L M N O P Q R S T U V W X Y Z # 

A Violent Reaction Tabs (ver.3)

American Head Charge
Rating:
0/5 (0 votes)

Hard to play? Try these video lessons and learn fast.
                (2)

Drop-D tuning E,B,G,D,A,D


I saw this band on the 2nd stage at OzzfEST 2001 what a great show.
American head charge put on a great show and i was fornt row for there 
set , i basiclly picked up this whole song. Im pretty sure this is correct.
It is alot better then the other kids tab , he must have been drunk.


Intro:

Gtr.1
E|--------------------------------------------|
B|-----------------------X-X-X-X--------------|
G|-----------------------X-X-X-X--------------|
D|-3-4-3-4-3-4-3-4-3-4-3-X-X-X-X--------------|
A|-3-4-3-4-3-4-3-4-3-4-3----------------------|
D|-3-4-3-4-3-4-3-4-3-4-3----------------------|

Gtr.2
E|--------------------------------------------|
B|--------------------------------------------|
G|-----------------------3-4-3----------------|
D|-3-4-3-4-3-4-3-4-3-4-3----------------------|
A|-3-4-3-4-3-4-3-4-3-4-3----------------------|
D|-3-4-3-4-3-4-3-4-3-4-3----------------------|

Both guitars
E|--------------------------------------------|
B|--------------------------------------------|
G|--------------------------------------------|
D|-2-2-2-2-/-5~-------------------------------|
A|-2-2-2-2-/-5~-------------------------------|
D|-2-2-2-2-/-5~-------------------------------|

Verse: (part 1)

E|--------------------------------------------|
B|-----------------------X-X-X-X--------------|
G|-----------------------X-X-X-X--------------|
D|-----------------------X-X-X-X--------------|
A|--------------------------------------------|
D|-3-4-3-4-3-4-3-4-3-4-3----------3~-4~-------|

(Part 2)
E|--------------------------------------------|
B|-----------------------X-X-X-X--------------|
G|-----------------------X-X-X-X--------------|
D|-3-4-3-4-3-4-3-4-3-4-3-X-X-X-X--3~-4~-------|
A|-3-4-3-4-3-4-3-4-3-4-3----------3~-4~-------|
D|-3-4-3-4-3-4-3-4-3-4-3----------3~-4~-------|

Bridge:
E|----------------------------------------------------|
B|----------------------------------------------------|
G|----------------------------------------------------|
D|-0-3-4-3-0-3-4-3-0-3-4-0-3-4-3-0-3-4-3-0-3/7-7-7-7--|
A|-0-3-4-3-0-3-4-3-0-3-4-0-3-4-3-0-3-4-3-0-3/7-7-7-7--|
D|-0-3-4-3-0-3-4-3-0-3-4-0-3-4-3-0-3-4-3-0-3/7-7-7-7--|

Chorus:
E|--------------------------------------------|
B|--------------------------------------------|
G|--------------------------------------------|
D|-0-0-0--3/-4-4-4/-9-9-9-10-10-10------------|
A|-0-0-0--3/-4-4-4/-9-9-9-10-10-10------------|
D|-0-0-0--3/-4-4-4/-9-9-9-10-10-10------------|

E|--------------------------------------------|
B|--------------------------------------------|
G|--------------------------------------------|
D|-0-0-0--3/-4-4-4/-9-9-9/-5-5-5--------------|
A|-0-0-0--3/-4-4-4/-9-9-9/-5-5-5--------------|
D|-0-0-0--3/-4-4-4/-9-9-9/-5-5-5--------------|
            
Hard to play? Try these video lessons and learn fast. | Correct




comments powered by Disqus
↑ Back to top | Tablatures and chords are parodies/interpretations of the original songs. You may use it for private study, scholarship, research or language learning purposes only