» » »

American Head Charge, All Wrapped Up Tabs (ver.2)

Artists:  A B C D E F G H I J K L M N O P Q R S T U V W X Y Z # 

All Wrapped Up Tabs (ver.2)

American Head Charge Tabs
 Rating:
3.7/5 (6 votes)
All Wrapped Up lessons Tabs too difficult? Try these video lessons and learn fast
                All Wrapped Up from American Head Charge
Tuning: AEADGBe (7 string not needed)

Intro 1(don't play the part after the line on the last time through)
-------------------------------------|----|
-------------------------------------|----|
-------------------------------------|----|
-------------------------------------|----|
-4-4-4-4-4-4-4-4h5-4-4-4-4-4-4-4-4h5-|4h5-|
-4-4-4-4-4-4-4-4h5-4-4-4-4-4-4-4-4h5-|4h5-|
-4-4-4-4-4-4-4-4h5-4-4-4-4-4-4-4-4h5-|4h5-|

Intro 2/Pre-Chorus- Guitar 2 plays an octave higher on the 5's(listen carefully to this riff)
----------------------|
----------------------|
----------------------|
----------------------|
-4444-5555-454-45-455-|
-4444-5555-454-45-455-|
-4444-5555-454-45-455-|
 ....      .   .  .
Verse
-----------------|
-----------------|
-----------------|
-----------------|
-4-4-4-4-4-4-4-4-|
-4-4-4-4-4-4-4-4-|
-4-4-4-4-4-4-4-4-|

Chorus 1
-------------------|
-------------------|
-------------------|
-------------------|
-6/10-109-910-6-66-|
-6/10-109-912-6-66-|
-6/10-109-912-6-66-|

Corus 2(at first it's hard to make out if the guitar's going, so ring these notes once 
just the low A)
-----------------|
-----------------|
-----------------|
-----------------|
-4-4-5-5-7-7-9-9-|
-4-4-5-5-7-7-9-9-|
-4-4-5-5-7-7-9-9-|

Interlude 1 is just the Verse

Interlude 2
-----------------|
-----------------|
-----------------|
-----------------|
-4-5-4h5-4h5-555-|
-4-5-4h5-4h5-555-|
-4-5-4h5-4h5-555-|

Outro(stop end note first 4, ring it last 4)
-------------|
-------------|
-------------|
-------------|
-4-5-4h5-4h5-|
-4-5-4h5-4h5-|
-4-5-4h5-4h5-|
            
Submit corrections

comments powered by Disqus
↑ Back to top | American Head Charge Tabs for All Wrapped Up. Lyrics for acoustic guitar and electric guitar. Tablatures and chords are parodies/interpretations of the original songs. You may use it for private study, scholarship, research or language learning purposes only