» » »

American Bang, Wild And Young Tabs (ver.1)

Artists:  A B C D E F G H I J K L M N O P Q R S T U V W X Y Z # 

Wild And Young Tabs (ver.1)

American Bang Tabs
 Rating:
3.8/5 (5 votes)
Wild And Young lessons Tabs too difficult? Try these video lessons and learn fast
1
                ----------------------------------------------------------------------------
----------------------------------------------------------------------------

The versions up are for chords and are a little off, so here's a tablature version.  I 

Tuning: Standard


This is the riff that plays with a weird effect in the opening and chorus:
e|-------------------4-4-5-------|
B|-3-3--7-5--2---7-5-------------|  Play twice
G|-------------4-----------------|
D|-------------------------------|
A|-------------------------------|
E|-------------------------------|

The rhythm guitar is like this (strumming):
e|---------------------------|
B|---------------------------|
G|-7-------9---11------------|
D|-7---7---9---11------------|
A|-5---7---7---9-------------|
E|-----5---------------------|

The first verse is just strumming this, with this variation on the second:
e|--------------------------------------------------------------------|
B|--------------------------------------------------------------------|
G|--7-7-7-7-7-7-7-7-7-7-7-7-7-7-7-7--2-2-2-2-2-2-2-2-4-4-4-4-6-6-6-6--|
D|--7-7-7-7-7-7-7-7-7-7-7-7-7-7-7-7--2-2-2-2-2-2-2-2-2-2-2-2-2-2-2-2--|
A|--5-5-5-5-5-5-5-5-5-5-5-5-5-5-5-5--0-0-0-0-0-0-0-0-0-0-0-0-0-0-0-0--|
E|--------------------------------------------------------------------|

At "We are wild and young..." you play this:
e|-------------------------------------------------------------------------|
B|-------------------------------------------------------------------------|
G|---------------------------------------------------7-7-7-7-7-7-7-7-------|
D|-7-7-7-7-7-7-7-7-7-7-7-7-7-7-7-7--4-4-4-4-4-4-4-4--7-7-7-7-7-7-7-7-------|
A|-7-7-7-7-7-7-7-7-7-7-7-7-7-7-7-7--4-4-4-4-4-4-4-4--5-5-5-5-5-5-5-5-------|
E|-5-5-5-5-5-5-5-5-5-5-5-5-5-5-5-5--2-2-2-2-2-2-2-2------------------------|

At the prechorus, strum these chords:
e|---------------------------|  When it gets to "so right, so right,"
B|---------------------------|  omit the last chord and strum the third.
G|----7--2--9--11------------|  Chorus is the same as the opening.
D|----7--2--9--11------------|
A|----5--0--7--9-------------|
E|----------0----------------|

The bridge is weird, there's an effect that makes it sound strange.  I don't know if 
is exactly how you play it, but the notes are correct (it's a B to a C sharp)
e|---------------------|
B|---------------------|
G|---------------------|
D|--9/11--9/11---------|
A|---------------------|
E|---------------------|

That's it, the rest is just a repetition of the separate parts.
            
Submit corrections

comments powered by Disqus
↑ Back to top | American Bang Tabs for Wild And Young. Lyrics for acoustic guitar and electric guitar. 1 Tablatures and chords are parodies/interpretations of the original songs. You may use it for private study, scholarship, research or language learning purposes only