» » »

American Bang, Move To The Music Tabs (ver.1)

Artists:  A B C D E F G H I J K L M N O P Q R S T U V W X Y Z # 

Move To The Music Tabs (ver.1)

American Bang Tabs
 Rating:
4.2/5 (5 votes)
Move To The Music lessons Tabs too difficult? Try these video lessons and learn fast
1
                -------------------------------------------------------------------------------
-------------------------------------------------------------------------------

Tuning: Standard

Please take a second to rate it, any suggestions are more than welcome!  I’m working on 
pull-off part of the solo now, there is a lot of wah and/or phaser to work through, so 
might take a while!

Intro

Guitar 1
e|---------------------------------------------------------------------------|
B|---------------------------------------------------------------------------|
G|---------------------------------------------------------------------------|
D|----9-----9-----9-----9-----9--9--9--9-----9--9--9-------------------------|
A|----9-----9-----9-----9-----9--9--9--9-----9--9--9----------(x4)-----------|
E|----7-----7-----7-----7-----7--7--7--7-----7--7--7-------------------------|


Guitar 1+2
e|---------------------------------------------------------------------------|
B|---------------------------------------------------------------------------|
G|------------------------------------9---9---9---9---11--11--11--11---------|
D|----9---9---9---9---9---9---9---9---9---9---9---9---11--11--11--11---(x2)--|
A|----9---9---9---9---9---9---9---9---7---7---7---7---9---9---9---9----------|
E|----7---7---7---7---7---7---7---7------------------------------------------|


Guitar 1
e|---------------------------------------------------------------------------|
B|---------------------------------------------------------------------------|
G|---------------------------------------------------------------------------|
D|----9--9--12-12--11---9---9--7-7---8---9--9--12-12--11---9---9--7-7--------|
A|----9--9--12-12--11---9---9--7-7---8---9--9--12-12--11---9---9--7-7---(x2)-|
E|----7--7s-10-10---9---7---7--5-5---6---7--7s-10-10---9---7---7--5-5--------|
Guitar 2
e|---------------------------------------------------------------------------|
B|---------------------------------------------------------------------------|
G|----8-----------------8----------------8------------------8----------------|
D|----9-----------------9----------------9------------------9-----------(x2)-|
A|----9-----------------9----------------9------------------9----------------|
E|----7-----------------7----------------7------------------7----------------|

Verse

Guitar 1
e|---------------------------------------------------------------------------|
B|-----“she’s sweet on”------------------------------------------------------|
G|---------------------------------------------------------------------------|
D|----------x--x--9-----------------------x--x--9----------------------------|
A|----------x--x--9-----------------------x--x--9----------------------------|
E|----------x--x--7-----------------------x--x--7----------------------------|
Guitar 2
e|---------------------------------------------------------------------------|
B|---------------------------------------------------------------------------|
G|--------------------10--9--7--9--7----------------10--9--7--9--7-----------|
D|------------------------------------7-----------------------------7--------|
A|---------------------------------------------------------------------------|
E|---------------------------------------------------------------------------|


Chorus

Guitars 1+2
e|---------------------------------------------------------------------------|
B|---------------------------------------------------------------------------|
G|----------------------------------9---9---9---9---11--11--11--11-----------|
D|--9---9---9---9---9---9---9---9---9---9---9---9---11--11--11--11-(9)-------|
A|--9---9---9---9---9---9---9---9---7---7---7---7---9---9---9---9--(9)-------|
E|--7---7---7---7---7---7---7---7----------------------------------(7)-------|

Post Chorus (Intro Riff)

Guitar 1
e|---------------------------------------------------------------------------|
B|---------------------------------------------------------------------------|
G|---------------------------------------------------------------------------|
D|----9-----9-----9-----9-----9--9--9--9-----9--9--9-------------------------|
A|----9-----9-----9-----9-----9--9--9--9-----9--9--9-------------------------|
E|----7-----7-----7-----7-----7--7--7--7-----7--7--7-------------------------|
Guitar 2
e|---------------------------------------------------------------------------|
B|---------------------------------------------------------------------------|
G|-------------------------------------------------9b------------------------|
D|---------------------------------------------------------------------------|
A|---------------------------------------------------------------------------|
E|---------------------------------------------------------------------------|

Bridge (or prechorus) at 1:20

Guitar 1 (some version of the intro riff, just hit B!)
e|---------------------------------------------------------------------------|
B|---------------------------------------------------------------------------|
G|---------------------------------------------------------------------------|
D|----9-----9-----9-----9-----9--9--9--9-----9--9--9-------------------------|
A|----9-----9-----9-----9-----9--9--9--9-----9--9--9-------------------------|
E|----7-----7-----7-----7-----7--7--7--7-----7--7--7-------------------------|
Guitar 2
e|---------------------------------------------------------------------------|
B|---------------------------------------------------------------------------|
G|--------------------------------------------------------------------12-12--|
D|--9b11--r9b11r9--7-----9b11--r9--9b11-----9b11--r9b11r9--7-----13b14-------|
A|---------------------------------------------------------------------------|
E|---------------------------------------------------------------------------|

Solo (starting at 1:46)

Guitar 1 throughout
e|----------------------------------------------------10------5--------------|
B|----------------------------------------------------10------5--------------|
G|----------------------------------------------------11------6--------------|
D|--9---9---9---9---9---9---9---9---9---9---9---9-----12------7--------------|
A|--9---9---9---9---9---9---9---9---9---9---9---9-----12------7--------------|
E|--7---7---7---7---7---7---7---7---7---7---7---7-----10s-----5--------------|

Guitar 2
1:46 - 1:57
e|---------------------------------------------------------------------------|
B|---------------------------------------------------------------------------|
G|---------------------------------------------------------------------------|
D|------9b11--r9b11r9--7-----9b11--r9--9b11----------------------------------|
A|---------------------------------------------------------------------------|
E|---------------------------------------------------------------------------|


She's got lipstick on
Big box full of cigarettes
Black books full of the rockstars
That she's sweet on
She's sweet on

Well she loves the guys
But she comes for the music
Rock fist in the air
And she's not afraid to use it
It's her motto
It's her motto

Oh, if you wanna pump it
Pump it loud
If you wanna shake it
Shake it now
If you got your ticket
Join the crowd
Move to the music,
Move to the music, come on

She's got a cell phone, ringtone,
Bump it with a bang tone,
Callin' all the kids from California
All the way to Hong-Kong
All the way to Hong-Kong

Next city, next day,
Different room, same place,
She's front an' center,
Dancing with her drink on
She's dancing with her drink on

She says,
Don't you love them?
Aren't they great?
Take your coat off, and
Dance with me

If you wanna pump it,
Pump it loud
If you wanna shake it,
Shake it now
If you got your ticket,
Join the crowd
Move to the music,
Move to the music, come on...

She says,
Don't you love them?
Aren't they great?
Take your coat off, and
Dance with me

If you wanna pump it,
Pump it loud
If you wanna shake it,
Shake it now
If you got your ticket, well,
Join the crowd
Move to the music,
Move to the music, come on!

| /  slide up
| \  slide down
| h  hammer-on
| p  pull-off
| ~  vibrato
| +  harmonic
| x  Mute note
===============================================================================
            
Submit corrections

comments powered by Disqus
↑ Back to top | American Bang Tabs for Move To The Music. Lyrics for acoustic guitar and electric guitar. 1 Tablatures and chords are parodies/interpretations of the original songs. You may use it for private study, scholarship, research or language learning purposes only