» » »

American Bang, Kiss Kiss Bang Tabs (ver.1)

Artists:  A B C D E F G H I J K L M N O P Q R S T U V W X Y Z # 

Kiss Kiss Bang Tabs (ver.1)

American Bang Tabs
 Rating:
4/5 (4 votes)
Kiss Kiss Bang lessons Tabs too difficult? Try these video lessons and learn fast
                -------------------------------------------------------------------------------
-------------------------------------------------------------------------------

This is a basic tab of the song - all you need to rock out!  

Tuning: Standard

Intro (when he starts singing):
e|---------------------------------------------------------------------------|
B|---------------------------------------------------------------------------|
G|----------------------7-----------------5-----(sometimes)------------------|
D|----7-----------------7-----------------5------------------5---------------|
A|----7-----------------5-----------------3-------3--2--0----5---------------|
E|----5------------------------------------------------------3---------------|

Verse 1 and 2:
e|-----------------------------------|  |-------(the last line of verse)-----|
B|-----------------------------------|  |------------------------------------|
G|----------------------7p5---7---7--|  |------------------1-----------------|
D|----7-----------------7p5---7---7--|  |---5--------------2-----------------|
A|----7-----------------5-----5---5--|  |---5--------------2-----------------|
E|----5------------------------------|  |---3--------------0-----------------|

Chorus
e|---------------------------------------------------------------------------|
B|---------------------------------------------------------------------------|
G|----------------------7-----------------5-----(sometimes)------------------|
D|----7-----------------7-----------------5------------------5---------------|
A|----7-----------------5-----------------3-------3--2--0----5---------------|
E|----5------------------------------------------------------3---------------|

Post Chorus Riff (go up an octave after the second Chorus)
e|---------------------------------------------------------------------------|
B|------------------------------5-----------------------------8--------------|
G|------------------------------5-----------------------------7b9--r7--------|
D|----7--------5--7--7~-----5h7---7------7---------5--6--7-------------------|
A|----7---5s7----------------------------7----5s7----------------------------|
E|----5----------------------------------5-----------------------------------|


Solo - Solo in the key of C (mostly pentatonic).  Rhythm guitar plays verse chords.

Outro

e|--------------------------------| 
B|--------------------------------|  
G|----7----------7------7---------| 
D|----7--7-------7--7---7--7------| 
A|----5--7-------5--7---5--7------|  
E|-------5----------5------5------| 
            
Submit corrections

comments powered by Disqus
↑ Back to top | American Bang Tabs for Kiss Kiss Bang. Lyrics for acoustic guitar and electric guitar. Tablatures and chords are parodies/interpretations of the original songs. You may use it for private study, scholarship, research or language learning purposes only