» » »

I Shot The King Tabs (ver.1)

Artists:  A B C D E F G H I J K L M N O P Q R S T U V W X Y Z # 

I Shot The King Tabs (ver.1)

American Bang
Rating:
0/5 (0 votes)

Hard to play? Try these video lessons and learn fast.
                -------------------------------------------------------------------------------
-------------------------------------------------------------------------------
Tuning:	Standard
Guitars:  There are two, but I’m basically tabbing out the rhythm guitar. 
The lead guitar breaks down the chords into a few notes and plays along.

Note:  This song was from the bands first record when 
they were called Bang Bang Bang.  Please take a second 
To rate it, any feedback is welcome. 


Intro/Chorus

e|---------------------------------------------------------------------------|
B|---------------------------------------------------------------------------|
G|---------------------------------------------------------------------------|
D|-------------------------------------------------------------2-------------|
A|-------------------------------------------------------------2-------------|
E|--0----5b--s0--------0----5b--s0---------0----5b--s0---------0-------------|


Pre-verse 
	E5					  A5	
e|---------------------------------------------------------------------------|
B|----8----------8--x--8-8----------8----------------------------------------|
G|------9p7--7h9-----------9p7-7h9---------14p12--14p12------14-----12~~~----|
D|--------------------------------------------------------14----14-----------|
A|---------------------------------------------------------------------------|
E|--------------------------------------------------------[--pm---]----------|

Verse

e|---------------------------------------------------------------------------|
B|---------------------------------------------------------------------------|
G|---9----9---x--x--x--9----9----9--9-----6----6---x--x--x--6----6----6--6---|
D|---9----9---x--x--x--9----9----9--9-----7----7---x--x--x--7----7----7--7---|
A|---7----7---x--x--x--7----7----7--7-----7----7---x--x--x--7----7----7--7---|
E|----------------------------------------5----5---x--x--x--5----5----5--5---|

Pre-Chorus 1

e|---------------------------------------------------------------------------|
B|---------------------------------------------------------------------------|
G|-----12--12--12--12-----7--7--7--7-----------------------------------------|
D|-----12--12--12--12-----7--7--7--7-----------------------------------------|
A|-----10--10--10--10-----5--5--5--5-----------------------------------------|
E|---------------------------------------------------------------------------|

Pre-chorus 2

e|---------------------------------------------------------------------------|
B|---------------------------------------------------------------------------|
G|-----12--12--12--12-----7--7--7--7----11--11--11--11-----9--9--9--9--------|
D|-----12--12--12--12-----7--7--7--7----11--11--11--11-----9--9--9--9--------|
A|-----10--10--10--10-----5--5--5--5-----9---9---9---9-----7--7--7--7--------|
E|---------------------------------------------------------------------------|

e|---------------------------------------------------------------------------|
B|---------------------------------------------------------------------------|
G|-----12--12--12--12-----7--7--7--7----11--11--11--11--11--11--11--11-------|
D|-----12--12--12--12-----7--7--7--7----11--11--11--11--11--11--11--11-------|
A|-----10--10--10--10-----5--5--5--5-----9---9---9---9---9---9---9---9-------|
E|---------------------------------------------------------------------------|


Bridge/Breakdown

e|------------------------------------------------|
B|------------------------------------------------|
G|------------------------------------------------|
D|------------------------------------------------|
A|---2----2----2----2------2----2-----------------|
E|---0----0----0----3b-----0----0----3s5----s3----|




| s  slide
| h  hammer-on
| p  pull-off
| ~  vibrato
| +  harmonic
| x  Mute note
===============================================================================
            
Hard to play? Try these video lessons and learn fast. | Correct




comments powered by Disqus
↑ Back to top | Tablatures and chords are parodies/interpretations of the original songs. You may use it for private study, scholarship, research or language learning purposes only