» » »

America, Lonely People Bass tabs (ver.1)

Artists:  A B C D E F G H I J K L M N O P Q R S T U V W X Y Z # 

Lonely People Bass tabs (ver.1)

America Tabs
 Rating:
4/5 (5 votes)
Lonely People lessons Tabs too difficult? Try these video lessons and learn fast
                -------------------------------------------------------------------------------
-------------------------------------------------------------------------------


Tuning: Standard
===================================================================================
	
	Intro:

G|-----------------------------------|-----/9-7------------------------------|
D|-----------------------------------|-----------9-7-5-----------------------|
A|-----------------------------------|---------------------------------------|
E|-----------------------------------|---------------------------------------|

G|---------------------------------------------------------------------------|
D|------5-----7----5-4-2-0---------------------------------------------------|
A|---3-----5-----------------3----5--5----------5-5-7-5----------------------|
E|----------------------------------------3----------------------------------|

	Verse:
	
G|---------------------------------------------------------------------------|
D|-----------------------9---9-7---------------------------------------------|
A|----------7-7--7----9---------9-10------7-7-----9--------------------------|
E|---3-3--3--------7------------------10--------7---10-----------------------|

G|---------------------------------------------------------------------------|
D|------------5-----7---5-4-2-0----5-----7----------0-2-4--------------------|
A|---9-7---------5--------------3-----5--------------------------------------|
E|------9-8----------------------------------3--3----------------------------|

G|---------------------------------------------------------------------------|
D|-----------------------9---9-7---------------------------------------------|
A|----------7--7-7----9---------9-10------7-7-----9--------------------------|
E|----3-0----------7------------------10--------7---10-----------------------|

G|---------------------------------------------------------------------------|
D|------------5-----7---5-4-2-0----------------------------------------------|
A|---9-7---------5---------------3-33-5--5-----------------------------------|
E|------9-8--------------------------------3-3-33----------------------------|

	Bridge:

G|-------------------------|
D|-------------------------|  
A|---3-2-0-----------------| x2
E|----------00-55-00-------|
 
G|-------------------------|
D|-------------------------|
A|---3-2-0-5---------------|
E|-----------3-3--3-2-0----|

	Instrumental (...Hit it!):
	
G|---------------------------------------------------------------------------|
D|---------------------------------------------------------------------------|
A|----------55--7-9-10---5h7/10--10-10--10--------7-9-10-9-------------------|
E|---3-3-3---------------------------------1010------------------------------|

G|---------------------------|        G|--------------------------|
D|----------------7-9--------|        D|--------------------------|
A|---77-5-7------------------|  x3    A|----5-4-2-0h2p0-----------|
E|-----------7-7-------------|        E|--------------------------|

	Ending Verse:

G|---------------------------------------------------------------------------|
D|-----------------------9---9-7---------------------------------------------|
A|----------7-7--7----9---------9-10------7-7-----9--------------------------|
E|----3-0----------7------------------10--------7---10-----------------------|

G|---------------------------------------------------------------------------|
D|------------5-----7---5-4-2-0----5-----7---5-4-2-0----5----7---------------|
A|---9-7---------5--------------3-----5---------------3----5------7~---------|
E|------9-8------------------------------------------------------------------|

==========================================================================================


Excellent Song with a positive message.  It's gotta folky feel to it so make sure u pick up on the rhythm. 


==================================================================================

| /  slide up
| \  slide down
| h  hammer-on
| p  pull-off
| ~  vibrato
| +  harmonic
| x  Mute note
===============================================================================
            
Submit corrections

comments powered by Disqus
↑ Back to top | America Bass for Lonely People. Lyrics for acoustic guitar and electric guitar. Tablatures and chords are parodies/interpretations of the original songs. You may use it for private study, scholarship, research or language learning purposes only