» » »

A Horse With No Name Tabs (ver.6)

Artists:  A B C D E F G H I J K L M N O P Q R S T U V W X Y Z # 

A Horse With No Name Tabs (ver.6)

America
Rating:
4/5 (14 votes)
Tabs too difficult? Try these video lessons and learn fast.
                This is my first tab so sorry if its a bit messy. Hope you enjoy.

|-12-12-12-12-12-12-12-12-12-12-12-12-12-10--10----------------------------|
|------------------------------------------12--12--10--12--10--10----------|
|------------------------------------------------------------12--12--9--12-|
|--------------------------------------------------------------------------|
|--------------------------------------------------------------------------|
|--------------------------------------------------------------------------|

|--------------------------------------------------------------------------|
|--------------------------------------------------------------------------|
|-9-----9------------------------------------------------------------------|
|---12----12--9--12--9-----------------------------------------------------|
|----------------------10--------------------------------------------------|
|-------------------------12-----------------------------------------------|
            
Tabs too difficult? Try these video lessons and learn fast.


comments powered by Disqus
↑ Back to top | Tablatures and chords are parodies/interpretations of the original songs. You may use it for private study, scholarship, research or language learning purposes only