» » »

A Horse With No Name Bass tabs (ver.1)

Artists:  A B C D E F G H I J K L M N O P Q R S T U V W X Y Z # 

A Horse With No Name Bass tabs (ver.1)

America
Rating:
4/5 (3 votes)

Hard to play? Try these video lessons and learn fast.
                "
America
Horse with no name


Intro into verse
g-9-9-9p7---
d---------9-
a-----------
e-----------

Chorus:

Variation 1:
g---------------------------------------
d-2-2-2-2---4-4-----------------.-------
a----------------2-2-2---0-2-4--.-------
e---------------------------------------

Variation 2:
g---------------------------------------
d-2-2-2-2---4-4-----------------.-------
a----------------2-0-2-5--------.-------
e---------------------------------------

Variation 3:
g---------------------------------------
d-2-2-2-2---4-4-----------------.-------
a----------------2-2-2-5--------.-------
e---------------------------------------

Guitar solo:
g-5-7-------------------------------------------------------------------------
d-----5-7\10---------7-------9-9--------------7-7-----------------------------
a------------7h9-------9---------9h11------11-----7h9-----9-7--------/0-2-0---
e----------------7h9-----9-7----------11-9------------9-7---------------------

play the chorus variations as you like.

After playing the guitar solo you directly have to start with the chorus again!
During chorus and verse you can play the intro part. Just play as you like
or listen how it is played in the song.

I hope it helps, guess it´s pretty close to what you hear.
"            
Hard to play? Try these video lessons and learn fast. | Correct




comments powered by Disqus
↑ Back to top | Tablatures and chords are parodies/interpretations of the original songs. You may use it for private study, scholarship, research or language learning purposes only